  0
SECTION
  2
HEADER
  9
$ACADVER
  1
AC1027
  9
$ACADMAINTVER
 70
   125
  9
$DWGCODEPAGE
  3
ANSI_1252
  9
$REQUIREDVERSIONS
160
                 0
  9
$INSBASE
 10
0.0
 20
0.0
 30
0.0
  9
$EXTMIN
 10
1.000000000000000E+20
 20
1.000000000000000E+20
 30
1.000000000000000E+20
  9
$EXTMAX
 10
-1.000000000000000E+20
 20
-1.000000000000000E+20
 30
-1.000000000000000E+20
  9
$LIMMIN
 10
0.0
 20
0.0
  9
$LIMMAX
 10
12.0
 20
9.0
  9
$ORTHOMODE
 70
     0
  9
$REGENMODE
 70
     1
  9
$FILLMODE
 70
     1
  9
$QTEXTMODE
 70
     0
  9
$MIRRTEXT
 70
     0
  9
$LTSCALE
 40
1.0
  9
$ATTMODE
 70
     1
  9
$TEXTSIZE
 40
0.2
  9
$TRACEWID
 40
0.05
  9
$TEXTSTYLE
  7
Standard
  9
$CLAYER
  8
0
  9
$CELTYPE
  6
ByLayer
  9
$CECOLOR
 62
   256
  9
$CELTSCALE
 40
1.0
  9
$DISPSILH
 70
     0
  9
$DIMSCALE
 40
1.0
  9
$DIMASZ
 40
0.18
  9
$DIMEXO
 40
0.0625
  9
$DIMDLI
 40
0.38
  9
$DIMRND
 40
0.0
  9
$DIMDLE
 40
0.0
  9
$DIMEXE
 40
0.18
  9
$DIMTP
 40
0.0
  9
$DIMTM
 40
0.0
  9
$DIMTXT
 40
0.18
  9
$DIMCEN
 40
0.09
  9
$DIMTSZ
 40
0.0
  9
$DIMTOL
 70
     0
  9
$DIMLIM
 70
     0
  9
$DIMTIH
 70
     1
  9
$DIMTOH
 70
     1
  9
$DIMSE1
 70
     0
  9
$DIMSE2
 70
     0
  9
$DIMTAD
 70
     0
  9
$DIMZIN
 70
     0
  9
$DIMBLK
  1

  9
$DIMASO
 70
     1
  9
$DIMSHO
 70
     1
  9
$DIMPOST
  1

  9
$DIMAPOST
  1

  9
$DIMALT
 70
     0
  9
$DIMALTD
 70
     2
  9
$DIMALTF
 40
25.4
  9
$DIMLFAC
 40
1.0
  9
$DIMTOFL
 70
     0
  9
$DIMTVP
 40
0.0
  9
$DIMTIX
 70
     0
  9
$DIMSOXD
 70
     0
  9
$DIMSAH
 70
     0
  9
$DIMBLK1
  1

  9
$DIMBLK2
  1

  9
$DIMSTYLE
  2
Standard
  9
$DIMCLRD
 70
     0
  9
$DIMCLRE
 70
     0
  9
$DIMCLRT
 70
     0
  9
$DIMTFAC
 40
1.0
  9
$DIMGAP
 40
0.09
  9
$DIMJUST
 70
     0
  9
$DIMSD1
 70
     0
  9
$DIMSD2
 70
     0
  9
$DIMTOLJ
 70
     1
  9
$DIMTZIN
 70
     0
  9
$DIMALTZ
 70
     0
  9
$DIMALTTZ
 70
     0
  9
$DIMUPT
 70
     0
  9
$DIMDEC
 70
     4
  9
$DIMTDEC
 70
     4
  9
$DIMALTU
 70
     2
  9
$DIMALTTD
 70
     2
  9
$DIMTXSTY
  7
Standard
  9
$DIMAUNIT
 70
     0
  9
$DIMADEC
 70
     0
  9
$DIMALTRND
 40
0.0
  9
$DIMAZIN
 70
     0
  9
$DIMDSEP
 70
    46
  9
$DIMATFIT
 70
     3
  9
$DIMFRAC
 70
     0
  9
$DIMLDRBLK
  1

  9
$DIMLUNIT
 70
     2
  9
$DIMLWD
 70
    -2
  9
$DIMLWE
 70
    -2
  9
$DIMTMOVE
 70
     0
  9
$DIMFXL
 40
1.0
  9
$DIMFXLON
 70
     0
  9
$DIMJOGANG
 40
0.7853981633974483
  9
$DIMTFILL
 70
     0
  9
$DIMTFILLCLR
 70
     0
  9
$DIMARCSYM
 70
     0
  9
$DIMLTYPE
  6

  9
$DIMLTEX1
  6

  9
$DIMLTEX2
  6

  9
$DIMTXTDIRECTION
 70
     0
  9
$LUNITS
 70
     2
  9
$LUPREC
 70
     4
  9
$SKETCHINC
 40
0.1
  9
$FILLETRAD
 40
0.0
  9
$AUNITS
 70
     0
  9
$AUPREC
 70
     0
  9
$MENU
  1
.
  9
$ELEVATION
 40
0.0
  9
$PELEVATION
 40
0.0
  9
$THICKNESS
 40
0.0
  9
$LIMCHECK
 70
     0
  9
$CHAMFERA
 40
0.0
  9
$CHAMFERB
 40
0.0
  9
$CHAMFERC
 40
0.0
  9
$CHAMFERD
 40
0.0
  9
$SKPOLY
 70
     0
  9
$TDCREATE
 40
2460375.639004630
  9
$TDUCREATE
 40
2460375.639004630
  9
$TDUPDATE
 40
2460375.639004630
  9
$TDUUPDATE
 40
2460375.639004630
  9
$TDINDWG
 40
0.0000000000
  9
$TDUSRTIMER
 40
0.0000000000
  9
$USRTIMER
 70
     1
  9
$ANGBASE
 50
0.0
  9
$ANGDIR
 70
     0
  9
$PDMODE
 70
     0
  9
$PDSIZE
 40
0.0
  9
$PLINEWID
 40
0.0
  9
$SPLFRAME
 70
     0
  9
$SPLINETYPE
 70
     6
  9
$SPLINESEGS
 70
     8
  9
$HANDSEED
  5
1FC
  9
$SURFTAB1
 70
     6
  9
$SURFTAB2
 70
     6
  9
$SURFTYPE
 70
     6
  9
$SURFU
 70
     6
  9
$SURFV
 70
     6
  9
$UCSBASE
  2

  9
$UCSNAME
  2

  9
$UCSORG
 10
0.0
 20
0.0
 30
0.0
  9
$UCSXDIR
 10
1.0
 20
0.0
 30
0.0
  9
$UCSYDIR
 10
0.0
 20
1.0
 30
0.0
  9
$UCSORTHOREF
  2

  9
$UCSORTHOVIEW
 70
     0
  9
$UCSORGTOP
 10
0.0
 20
0.0
 30
0.0
  9
$UCSORGBOTTOM
 10
0.0
 20
0.0
 30
0.0
  9
$UCSORGLEFT
 10
0.0
 20
0.0
 30
0.0
  9
$UCSORGRIGHT
 10
0.0
 20
0.0
 30
0.0
  9
$UCSORGFRONT
 10
0.0
 20
0.0
 30
0.0
  9
$UCSORGBACK
 10
0.0
 20
0.0
 30
0.0
  9
$PUCSBASE
  2

  9
$PUCSNAME
  2

  9
$PUCSORG
 10
0.0
 20
0.0
 30
0.0
  9
$PUCSXDIR
 10
1.0
 20
0.0
 30
0.0
  9
$PUCSYDIR
 10
0.0
 20
1.0
 30
0.0
  9
$PUCSORTHOREF
  2

  9
$PUCSORTHOVIEW
 70
     0
  9
$PUCSORGTOP
 10
0.0
 20
0.0
 30
0.0
  9
$PUCSORGBOTTOM
 10
0.0
 20
0.0
 30
0.0
  9
$PUCSORGLEFT
 10
0.0
 20
0.0
 30
0.0
  9
$PUCSORGRIGHT
 10
0.0
 20
0.0
 30
0.0
  9
$PUCSORGFRONT
 10
0.0
 20
0.0
 30
0.0
  9
$PUCSORGBACK
 10
0.0
 20
0.0
 30
0.0
  9
$USERI1
 70
     0
  9
$USERI2
 70
     0
  9
$USERI3
 70
     0
  9
$USERI4
 70
     0
  9
$USERI5
 70
     0
  9
$USERR1
 40
0.0
  9
$USERR2
 40
0.0
  9
$USERR3
 40
0.0
  9
$USERR4
 40
0.0
  9
$USERR5
 40
0.0
  9
$WORLDVIEW
 70
     1
  9
$SHADEDGE
 70
     3
  9
$SHADEDIF
 70
    70
  9
$TILEMODE
 70
     1
  9
$MAXACTVP
 70
    64
  9
$PINSBASE
 10
0.0
 20
0.0
 30
0.0
  9
$PLIMCHECK
 70
     0
  9
$PEXTMIN
 10
1.000000000000000E+20
 20
1.000000000000000E+20
 30
1.000000000000000E+20
  9
$PEXTMAX
 10
-1.000000000000000E+20
 20
-1.000000000000000E+20
 30
-1.000000000000000E+20
  9
$PLIMMIN
 10
0.0
 20
0.0
  9
$PLIMMAX
 10
12.0
 20
9.0
  9
$UNITMODE
 70
     0
  9
$VISRETAIN
 70
     1
  9
$PLINEGEN
 70
     0
  9
$PSLTSCALE
 70
     1
  9
$TREEDEPTH
 70
  3020
  9
$CMLSTYLE
  2
Standard
  9
$CMLJUST
 70
     0
  9
$CMLSCALE
 40
1.0
  9
$PROXYGRAPHICS
 70
     1
  9
$MEASUREMENT
 70
     0
  9
$CELWEIGHT
370
    -1
  9
$ENDCAPS
280
     0
  9
$JOINSTYLE
280
     0
  9
$LWDISPLAY
290
     0
  9
$INSUNITS
 70
     5
  9
$HYPERLINKBASE
  1

  9
$STYLESHEET
  1

  9
$XEDIT
290
     1
  9
$CEPSNTYPE
380
     0
  9
$PSTYLEMODE
290
     1
  9
$FINGERPRINTGUID
  2
{FAC744A4-4E8B-C54E-91BE-CA37EBC84BFB}
  9
$VERSIONGUID
  2
{7BF5AC7A-4E5B-E14F-B885-39EDB29EDBAF}
  9
$EXTNAMES
290
     1
  9
$PSVPSCALE
 40
0.0
  9
$OLESTARTUP
290
     0
  9
$SORTENTS
280
   127
  9
$INDEXCTL
280
     0
  9
$HIDETEXT
280
     1
  9
$XCLIPFRAME
280
     2
  9
$HALOGAP
280
     0
  9
$OBSCOLOR
 70
   257
  9
$OBSLTYPE
280
     0
  9
$INTERSECTIONDISPLAY
280
     0
  9
$INTERSECTIONCOLOR
 70
   257
  9
$DIMASSOC
280
     2
  9
$PROJECTNAME
  1

  9
$CAMERADISPLAY
290
     0
  9
$LENSLENGTH
 40
50.0
  9
$CAMERAHEIGHT
 40
0.0
  9
$STEPSPERSEC
 40
2.0
  9
$STEPSIZE
 40
6.0
  9
$3DDWFPREC
 40
2.0
  9
$PSOLWIDTH
 40
0.25
  9
$PSOLHEIGHT
 40
4.0
  9
$LOFTANG1
 40
1.570796326794896
  9
$LOFTANG2
 40
1.570796326794896
  9
$LOFTMAG1
 40
0.0
  9
$LOFTMAG2
 40
0.0
  9
$LOFTPARAM
 70
     7
  9
$LOFTNORMALS
280
     1
  9
$LATITUDE
 40
37.795
  9
$LONGITUDE
 40
-122.394
  9
$NORTHDIRECTION
 40
0.0
  9
$TIMEZONE
 70
 -8000
  9
$LIGHTGLYPHDISPLAY
280
     1
  9
$TILEMODELIGHTSYNCH
280
     1
  9
$CMATERIAL
347
11
  9
$SOLIDHIST
280
     0
  9
$SHOWHIST
280
     1
  9
$DWFFRAME
280
     2
  9
$DGNFRAME
280
     0
  9
$REALWORLDSCALE
290
     1
  9
$INTERFERECOLOR
 62
     1
  9
$INTERFEREOBJVS
345
33
  9
$INTERFEREVPVS
346
30
  9
$CSHADOW
280
     0
  9
$SHADOWPLANELOCATION
 40
0.0
  0
ENDSEC
  0
SECTION
  2
CLASSES
  0
CLASS
  1
ACDBDICTIONARYWDFLT
  2
AcDbDictionaryWithDefault
  3
ObjectDBX Classes
 90
        0
 91
        1
280
     0
281
     0
  0
CLASS
  1
MATERIAL
  2
AcDbMaterial
  3
ObjectDBX Classes
 90
     1153
 91
        3
280
     0
281
     0
  0
CLASS
  1
VISUALSTYLE
  2
AcDbVisualStyle
  3
ObjectDBX Classes
 90
     4095
 91
       24
280
     0
281
     0
  0
CLASS
  1
SCALE
  2
AcDbScale
  3
ObjectDBX Classes
 90
     1153
 91
       17
280
     0
281
     0
  0
CLASS
  1
TABLESTYLE
  2
AcDbTableStyle
  3
ObjectDBX Classes
 90
     4095
 91
        1
280
     0
281
     0
  0
CLASS
  1
MLEADERSTYLE
  2
AcDbMLeaderStyle
  3
ACDB_MLEADERSTYLE_CLASS
 90
     4095
 91
        1
280
     0
281
     0
  0
CLASS
  1
ACDBSECTIONVIEWSTYLE
  2
AcDbSectionViewStyle
  3
ObjectDBX Classes
 90
     1025
 91
        1
280
     0
281
     0
  0
CLASS
  1
ACDBDETAILVIEWSTYLE
  2
AcDbDetailViewStyle
  3
ObjectDBX Classes
 90
     1025
 91
        1
280
     0
281
     0
  0
CLASS
  1
DICTIONARYVAR
  2
AcDbDictionaryVar
  3
ObjectDBX Classes
 90
        0
 91
        5
280
     0
281
     0
  0
CLASS
  1
CELLSTYLEMAP
  2
AcDbCellStyleMap
  3
ObjectDBX Classes
 90
     1152
 91
        1
280
     0
281
     0
  0
ENDSEC
  0
SECTION
  2
TABLES
  0
TABLE
  2
VPORT
  5
8
330
0
100
AcDbSymbolTable
 70
     1
1001
ACAD
1000
DbSaveVer
1071
      291
  0
VPORT
  5
57
330
8
100
AcDbSymbolTableRecord
100
AcDbViewportTableRecord
  2
*Active
 70
     0
 10
0.0
 20
0.0
 11
1.0
 21
1.0
 12
500.0
 22
500.0
 13
0.0
 23
0.0
 14
1.0
 24
1.0
 15
0.0
 25
0.0
 16
0.0
 26
0.0
 36
1.0
 17
0.0
 27
0.0
 37
0.0
 40
12.0
 41
1.0
 42
50.0
 43
0.0
 44
0.0
 50
0.0
 51
0.0
 71
     0
 72
   100
 73
     1
 74
     1
 75
     0
 76
     0
 77
     0
 78
     0
281
     0
 65
     1
110
0.0
120
0.0
130
0.0
111
1.0
121
0.0
131
0.0
112
0.0
122
1.0
132
0.0
 79
     0
146
0.0
 60
     3
 61
     5
292
     1
282
     1
141
0.0
142
0.0
 63
   250
421
  3355443
  0
ENDTAB
  0
TABLE
  2
LTYPE
  5
5
330
0
100
AcDbSymbolTable
 70
     1
  0
LTYPE
  5
5B
330
5
100
AcDbSymbolTableRecord
100
AcDbLinetypeTableRecord
  2
ByBlock
 70
     0
  3

 72
    65
 73
     0
 40
0.0
  0
LTYPE
  5
5C
330
5
100
AcDbSymbolTableRecord
100
AcDbLinetypeTableRecord
  2
ByLayer
 70
     0
  3

 72
    65
 73
     0
 40
0.0
  0
LTYPE
  5
5D
330
5
100
AcDbSymbolTableRecord
100
AcDbLinetypeTableRecord
  2
Continuous
 70
     0
  3
Solid line
 72
    65
 73
     0
 40
0.0
  0
ENDTAB
  0
TABLE
  2
LAYER
  5
2
330
0
100
AcDbSymbolTable
 70
     2
  0
LAYER
  5
54
330
2
100
AcDbSymbolTableRecord
100
AcDbLayerTableRecord
  2
0
 70
     0
 62
     7
  6
Continuous
370
    -3
390
F
347
21
348
0
  0
LAYER
  5
7A
330
2
100
AcDbSymbolTableRecord
100
AcDbLayerTableRecord
  2
Top v2_Top v1_0
 70
     0
 62
     7
  6
Continuous
370
    -3
390
F
347
21
348
0
1001
NFusion_SketchTransform
1000
1.000000;0.000000;0.000000;0.000000;0.000000;1.000000;0.000000;0.000000;0.000000;0.000000;1.000000;0.000000;0.000000;0.000000;0.000000;1.000000
  0
ENDTAB
  0
TABLE
  2
STYLE
  5
3
330
0
100
AcDbSymbolTable
 70
     2
  0
STYLE
  5
55
330
3
100
AcDbSymbolTableRecord
100
AcDbTextStyleTableRecord
  2
Standard
 70
     0
 40
0.0
 41
1.0
 50
0.0
 71
     0
 42
0.2
  3
txt
  4

  0
STYLE
  5
5A
330
3
100
AcDbSymbolTableRecord
100
AcDbTextStyleTableRecord
  2
Annotative
 70
     0
 40
0.0
 41
1.0
 50
0.0
 71
     0
 42
0.2
  3
txt
  4

1001
AcadAnnotative
1000
AnnotativeData
1002
{
1070
     1
1070
     1
1002
}
  0
ENDTAB
  0
TABLE
  2
VIEW
  5
6
330
0
100
AcDbSymbolTable
 70
     0
  0
ENDTAB
  0
TABLE
  2
UCS
  5
7
330
0
100
AcDbSymbolTable
 70
     0
  0
ENDTAB
  0
TABLE
  2
APPID
  5
9
330
0
100
AcDbSymbolTable
 70
     4
  0
APPID
  5
56
330
9
100
AcDbSymbolTableRecord
100
AcDbRegAppTableRecord
  2
ACAD
 70
     0
  0
APPID
  5
5E
330
9
100
AcDbSymbolTableRecord
100
AcDbRegAppTableRecord
  2
AcadAnnotative
 70
     0
  0
APPID
  5
78
330
9
100
AcDbSymbolTableRecord
100
AcDbRegAppTableRecord
  2
EDIT_IN_FUSION_ACAD_ADDIN
 70
     0
  0
APPID
  5
79
330
9
100
AcDbSymbolTableRecord
100
AcDbRegAppTableRecord
  2
NFusion_SketchTransform
 70
     0
  0
ENDTAB
  0
TABLE
  2
DIMSTYLE
  5
A
330
0
100
AcDbSymbolTable
 70
     2
100
AcDbDimStyleTable
 71
     0
  0
DIMSTYLE
105
58
330
A
100
AcDbSymbolTableRecord
100
AcDbDimStyleTableRecord
  2
Standard
 70
     0
340
55
  0
DIMSTYLE
105
59
330
A
100
AcDbSymbolTableRecord
100
AcDbDimStyleTableRecord
  2
Annotative
 70
     0
340
55
1001
AcadAnnotative
1000
AnnotativeData
1002
{
1070
     1
1070
     1
1002
}
  0
ENDTAB
  0
TABLE
  2
BLOCK_RECORD
  5
1
330
0
100
AcDbSymbolTable
 70
     1
  0
BLOCK_RECORD
  5
70
330
1
100
AcDbSymbolTableRecord
100
AcDbBlockTableRecord
  2
*Model_Space
340
73
 70
     0
280
     1
281
     0
  0
BLOCK_RECORD
  5
6C
330
1
100
AcDbSymbolTableRecord
100
AcDbBlockTableRecord
  2
*Paper_Space
340
6F
 70
     0
280
     1
281
     0
  0
BLOCK_RECORD
  5
74
330
1
100
AcDbSymbolTableRecord
100
AcDbBlockTableRecord
  2
*Paper_Space0
340
77
 70
     0
280
     1
281
     0
  0
ENDTAB
  0
ENDSEC
  0
SECTION
  2
BLOCKS
  0
BLOCK
  5
71
330
70
100
AcDbEntity
  8
0
100
AcDbBlockBegin
  2
*Model_Space
 70
     0
 10
0.0
 20
0.0
 30
0.0
  3
*Model_Space
  1

  0
ENDBLK
  5
72
330
70
100
AcDbEntity
  8
0
100
AcDbBlockEnd
  0
BLOCK
  5
6D
330
6C
100
AcDbEntity
 67
     1
  8
0
100
AcDbBlockBegin
  2
*Paper_Space
 70
     0
 10
0.0
 20
0.0
 30
0.0
  3
*Paper_Space
  1

  0
ENDBLK
  5
6E
330
6C
100
AcDbEntity
 67
     1
  8
0
100
AcDbBlockEnd
  0
BLOCK
  5
75
330
74
100
AcDbEntity
 67
     1
  8
0
100
AcDbBlockBegin
  2
*Paper_Space0
 70
     0
 10
0.0
 20
0.0
 30
0.0
  3
*Paper_Space0
  1

  0
ENDBLK
  5
76
330
74
100
AcDbEntity
 67
     1
  8
0
100
AcDbBlockEnd
  0
ENDSEC
  0
SECTION
  2
ENTITIES
  0
POINT
  5
7B
330
70
100
AcDbEntity
  8
Top v2_Top v1_0
100
AcDbPoint
 10
0.0
 20
0.0
 30
0.0
  0
POINT
  5
7C
330
70
100
AcDbEntity
  8
Top v2_Top v1_0
100
AcDbPoint
 10
0.0
 20
40.0
 30
0.0
  0
POINT
  5
7D
330
70
100
AcDbEntity
  8
Top v2_Top v1_0
100
AcDbPoint
 10
0.0
 20
40.0
 30
0.0
  0
POINT
  5
7E
330
70
100
AcDbEntity
  8
Top v2_Top v1_0
100
AcDbPoint
 10
0.0
 20
32.5
 30
0.0
  0
POINT
  5
7F
330
70
100
AcDbEntity
  8
Top v2_Top v1_0
100
AcDbPoint
 10
-5.0
 20
27.5
 30
0.0
  0
POINT
  5
80
330
70
100
AcDbEntity
  8
Top v2_Top v1_0
100
AcDbPoint
 10
0.0
 20
0.0
 30
0.0
  0
POINT
  5
81
330
70
100
AcDbEntity
  8
Top v2_Top v1_0
100
AcDbPoint
 10
0.0
 20
32.5
 30
0.0
  0
ARC
  5
82
330
70
100
AcDbEntity
  8
Top v2_Top v1_0
100
AcDbCircle
 10
28.25000000000001
 20
35.45
 30
0.0
 40
0.0500000000000043
100
AcDbArc
 50
90.00000000000813
 51
180.0
  0
LINE
  5
83
330
70
100
AcDbEntity
  8
Top v2_Top v1_0
100
AcDbLine
 10
-8.959858167130391
 20
22.75299260428524
 30
0.0
 11
-9.521768057254242
 21
24.14376838613543
 31
0.0
  0
LINE
  5
84
330
70
100
AcDbEntity
  8
Top v2_Top v1_0
100
AcDbLine
 10
1.5
 20
33.73499091785735
 30
0.0
 11
0.0
 21
33.73499091785735
 31
0.0
  0
LINE
  5
85
330
70
100
AcDbEntity
  8
Top v2_Top v1_0
100
AcDbLine
 10
-5.0
 20
12.5
 30
0.0
 11
-5.0
 21
24.83338686581622
 31
0.0
  0
ARC
  5
86
330
70
100
AcDbEntity
  8
Top v2_Top v1_0
100
AcDbCircle
 10
28.7
 20
35.2
 30
0.0
 40
0.3000000000000043
100
AcDbArc
 50
0.000000000001357
 51
90.0
  0
ARC
  5
87
330
70
100
AcDbEntity
  8
Top v2_Top v1_0
100
AcDbCircle
 10
-0.0500000000000001
 20
35.45
 30
0.0
 40
0.0500000000000001
100
AcDbArc
 50
0.0
 51
90.00000000000067
  0
LINE
  5
88
330
70
100
AcDbEntity
  8
Top v2_Top v1_0
100
AcDbLine
 10
-5.412381978024775
 20
24.83338686581622
 30
0.0
 11
-5.187618021975232
 21
24.27707655307614
 31
0.0
  0
LINE
  5
89
330
70
100
AcDbEntity
  8
Top v2_Top v1_0
100
AcDbLine
 10
0.0
 20
33.73499091785735
 30
0.0
 11
1.5
 21
33.73499091785735
 31
0.0
  0
LINE
  5
8A
330
70
100
AcDbEntity
  8
Top v2_Top v1_0
100
AcDbLine
 10
0.0
 20
33.73499091785735
 30
0.0
 11
0.0
 21
35.45
 31
0.0
  0
ARC
  5
8B
330
70
100
AcDbEntity
  8
Top v2_Top v1_0
100
AcDbCircle
 10
-1.4523
 20
32.80000000000001
 30
0.0
 40
0.3000000000000003
100
AcDbArc
 50
180.0
 51
270.0000000000001
  0
LINE
  5
8C
330
70
100
AcDbEntity
  8
Top v2_Top v1_0
100
AcDbLine
 10
-9.521768057254242
 20
24.14376838613543
 30
0.0
 11
-11.83972769367123
 21
23.20725190259564
 31
0.0
  0
LINE
  5
8D
330
70
100
AcDbEntity
  8
Top v2_Top v1_0
100
AcDbLine
 10
-22.08673449737489
 20
17.44939030357169
 30
0.0
 11
-24.86828606107526
 21
16.32557052332396
 31
0.0
  0
LINE
  5
8E
330
70
100
AcDbEntity
  8
Top v2_Top v1_0
100
AcDbLine
 10
-9.149999999999998
 20
12.5
 30
0.0
 11
-5.0
 21
12.5
 31
0.0
  0
LINE
  5
8F
330
70
100
AcDbEntity
  8
Top v2_Top v1_0
100
AcDbLine
 10
28.2
 20
35.45
 30
0.0
 11
28.2
 21
33.73499091785735
 31
0.0
  0
LINE
  5
90
330
70
100
AcDbEntity
  8
Top v2_Top v1_0
100
AcDbLine
 10
-21.7499708282626
 20
12.5
 30
0.0
 11
-10.74999999999999
 21
12.5
 31
0.0
  0
LINE
  5
91
330
70
100
AcDbEntity
  8
Top v2_Top v1_0
100
AcDbLine
 10
-11.27781780354736
 20
21.81647612074546
 30
0.0
 11
-19.76877486095792
 21
18.38590678711147
 31
0.0
  0
ARC
  5
92
330
70
100
AcDbEntity
  8
Top v2_Top v1_0
100
AcDbCircle
 10
-27.19983042337608
 20
12.8
 30
0.0
 40
0.300000000000003
100
AcDbArc
 50
179.9676224021529
 51
270.0
  0
LINE
  5
93
330
70
100
AcDbEntity
  8
Top v2_Top v1_0
100
AcDbLine
 10
-9.199999999999999
 20
13.73499091785735
 30
0.0
 11
-9.199999999999995
 21
12.55
 31
0.0
  0
ARC
  5
94
330
70
100
AcDbEntity
  8
Top v2_Top v1_0
100
AcDbCircle
 10
-1.4523
 20
35.2
 30
0.0
 40
0.3000000000000043
100
AcDbArc
 50
89.99999999999992
 51
180.0
  0
ARC
  5
95
330
70
100
AcDbEntity
  8
Top v2_Top v1_0
100
AcDbCircle
 10
-26.26266515173969
 20
18.17509958177441
 30
0.0
 40
0.2999999999999965
100
AcDbArc
 50
21.99999999999983
 51
112.0000000000004
  0
LINE
  5
96
330
70
100
AcDbEntity
  8
Top v2_Top v1_0
100
AcDbLine
 10
-24.86828606107526
 20
16.32557052332396
 30
0.0
 11
-25.09305001712481
 21
16.88188083606403
 31
0.0
  0
ARC
  5
97
330
70
100
AcDbEntity
  8
Top v2_Top v1_0
100
AcDbCircle
 10
25.20543199514932
 20
17.16003599243417
 30
0.0
 40
0.2999999999999961
210
0.0
220
0.0
230
-1.0
100
AcDbArc
 50
256.2132107017837
 51
338.0000000000002
  0
LINE
  5
98
330
70
100
AcDbEntity
  8
Top v2_Top v1_0
100
AcDbLine
 10
28.7
 20
35.5
 30
0.0
 11
28.25000000000001
 21
35.5
 31
0.0
  0
LINE
  5
99
330
70
100
AcDbEntity
  8
Top v2_Top v1_0
100
AcDbLine
 10
-9.149999999999998
 20
12.5
 30
0.0
 11
-5.3
 21
12.5
 31
0.0
  0
LINE
  5
9A
330
70
100
AcDbEntity
  8
Top v2_Top v1_0
100
AcDbLine
 10
-10.69999999999999
 20
13.73499091785736
 30
0.0
 11
-9.199999999999999
 21
13.73499091785735
 31
0.0
  0
LINE
  5
9B
330
70
100
AcDbEntity
  8
Top v2_Top v1_0
100
AcDbLine
 10
-5.0
 20
12.8
 30
0.0
 11
-5.0
 21
24.55523170944618
 31
0.0
  0
LINE
  5
9C
330
70
100
AcDbEntity
  8
Top v2_Top v1_0
100
AcDbLine
 10
-5.187618021975232
 20
24.27707655307614
 30
0.0
 11
-8.959858167130391
 21
22.75299260428524
 31
0.0
  0
ARC
  5
9D
330
70
100
AcDbEntity
  8
Top v2_Top v1_0
100
AcDbCircle
 10
-23.34997108372913
 20
12.55
 30
0.0
 40
0.0499999999999989
100
AcDbArc
 50
269.9999999999959
 51
359.967622402153
  0
LINE
  5
9E
330
70
100
AcDbEntity
  8
Top v2_Top v1_0
100
AcDbLine
 10
-25.48358715151936
 20
17.04765401440939
 30
0.0
 11
-25.98450999536965
 21
18.28748155979918
 31
0.0
  0
LINE
  5
9F
330
70
100
AcDbEntity
  8
Top v2_Top v1_0
100
AcDbLine
 10
-1.752300000000001
 20
35.2
 30
0.0
 11
-1.752300000000001
 21
32.80000000000001
 31
0.0
  0
LINE
  5
A0
330
70
100
AcDbEntity
  8
Top v2_Top v1_0
100
AcDbLine
 10
-10.7
 20
12.55
 30
0.0
 11
-10.69999999999999
 21
13.73499091785736
 31
0.0
  0
LINE
  5
A1
330
70
100
AcDbEntity
  8
Top v2_Top v1_0
100
AcDbLine
 10
-10.1098490338915
 20
13.60038981122766
 30
0.0
 11
-10.1098490338915
 21
13.63499091785735
 31
0.0
  0
ARC
  5
A2
330
70
100
AcDbEntity
  8
Top v2_Top v1_0
100
AcDbCircle
 10
-9.149999999999987
 20
12.55000000000001
 30
0.0
 40
0.0500000000000078
100
AcDbArc
 50
180.0000000000081
 51
269.9999999999878
  0
LINE
  5
A3
330
70
100
AcDbEntity
  8
Top v2_Top v1_0
100
AcDbLine
 10
-1.4523
 20
32.5
 30
0.0
 11
28.7
 21
32.5
 31
0.0
  0
ARC
  5
A4
330
70
100
AcDbEntity
  8
Top v2_Top v1_0
100
AcDbCircle
 10
26.65
 20
35.45
 30
0.0
 40
0.0500000000000007
100
AcDbArc
 50
0.0000000000081422
 51
90.0
  0
LINE
  5
A5
330
70
100
AcDbEntity
  8
Top v2_Top v1_0
100
AcDbLine
 10
0.8870045498317676
 20
33.83499091785735
 30
0.0
 11
0.8870045498317676
 21
33.8959359455224
 31
0.0
  0
LINE
  5
A6
330
70
100
AcDbEntity
  8
Top v2_Top v1_0
100
AcDbLine
 10
-0.0500000000000007
 20
35.5
 30
0.0
 11
-1.4523
 21
35.5
 31
0.0
  0
LINE
  5
A7
330
70
100
AcDbEntity
  8
Top v2_Top v1_0
100
AcDbLine
 10
1.499999999999999
 20
35.45
 30
0.0
 11
1.5
 21
33.73499091785735
 31
0.0
  0
ARC
  5
A8
330
70
100
AcDbEntity
  8
Top v2_Top v1_0
100
AcDbCircle
 10
28.7
 20
32.8
 30
0.0
 40
0.2999999999999971
100
AcDbArc
 50
270.0
 51
0.0
  0
LINE
  5
A9
330
70
100
AcDbEntity
  8
Top v2_Top v1_0
100
AcDbLine
 10
26.7
 20
33.73499091785735
 30
0.0
 11
26.7
 21
35.45
 31
0.0
  0
ARC
  5
AA
330
70
100
AcDbEntity
  8
Top v2_Top v1_0
100
AcDbCircle
 10
-10.75000000000001
 20
12.55000000000001
 30
0.0
 40
0.0500000000000078
100
AcDbArc
 50
270.0000000000204
 51
359.9999999999919
  0
ARC
  5
AB
330
70
100
AcDbEntity
  8
Top v2_Top v1_0
100
AcDbCircle
 10
-5.3
 20
24.55523170944618
 30
0.0
 40
0.3000000000000007
100
AcDbArc
 50
0.0
 51
112.0000000000002
  0
ARC
  5
AC
330
70
100
AcDbEntity
  8
Top v2_Top v1_0
100
AcDbCircle
 10
-27.19700630016494
 20
17.79760125393367
 30
0.0
 40
0.3000000000000011
100
AcDbArc
 50
112.0000000000002
 51
179.9676224021529
  0
LINE
  5
AD
330
70
100
AcDbEntity
  8
Top v2_Top v1_0
100
AcDbLine
 10
-23.29929928703143
 20
13.73880511584321
 30
0.0
 11
-23.29929919123149
 21
13.73897464454009
 31
0.0
  0
LINE
  5
AE
330
70
100
AcDbEntity
  8
Top v2_Top v1_0
100
AcDbLine
 10
-11.83972769367123
 20
23.20725190259564
 30
0.0
 11
-11.27781780354736
 21
21.81647612074546
 31
0.0
  0
LINE
  5
AF
330
70
100
AcDbEntity
  8
Top v2_Top v1_0
100
AcDbLine
 10
-27.5
 20
12.5
 30
0.0
 11
-23.34997108372914
 21
12.5
 31
0.0
  0
LINE
  5
B0
330
70
100
AcDbEntity
  8
Top v2_Top v1_0
100
AcDbLine
 10
-21.7499708282626
 20
12.5
 30
0.0
 11
-10.74999999999999
 21
12.5
 31
0.0
  0
LINE
  5
B1
330
70
100
AcDbEntity
  8
Top v2_Top v1_0
100
AcDbLine
 10
-21.79929943073133
 20
13.73812700105569
 30
0.0
 11
-21.79997082027927
 21
12.55002825478281
 31
0.0
  0
LINE
  5
B2
330
70
100
AcDbEntity
  8
Top v2_Top v1_0
100
AcDbLine
 10
-23.29929919123149
 20
13.73897464454009
 30
0.0
 11
-21.79929943073133
 21
13.73812700105569
 31
0.0
  0
LINE
  5
B3
330
70
100
AcDbEntity
  8
Top v2_Top v1_0
100
AcDbLine
 10
-27.19983042337608
 20
12.5
 30
0.0
 11
-23.34997108372914
 21
12.5
 31
0.0
  0
LINE
  5
B4
330
70
100
AcDbEntity
  8
Top v2_Top v1_0
100
AcDbLine
 10
-22.64864438749876
 20
18.84016608542187
 30
0.0
 11
-22.08673449737489
 21
17.44939030357169
 31
0.0
  0
LINE
  5
B5
330
70
100
AcDbEntity
  8
Top v2_Top v1_0
100
AcDbLine
 10
-23.29997109171246
 20
12.54997174521718
 30
0.0
 11
-23.29929928703143
 21
13.73880511584321
 31
0.0
  0
ARC
  5
B6
330
70
100
AcDbEntity
  8
Top v2_Top v1_0
100
AcDbCircle
 10
1.549999999999998
 20
35.45
 30
0.0
 40
0.0499999999999972
100
AcDbArc
 50
90.00000000000049
 51
180.0
  0
LINE
  5
B7
330
70
100
AcDbEntity
  8
Top v2_Top v1_0
100
AcDbLine
 10
-26.37504712976446
 20
18.45325473814444
 30
0.0
 11
-27.30938827818972
 21
18.0757564103037
 31
0.0
  0
LINE
  5
B8
330
70
100
AcDbEntity
  8
Top v2_Top v1_0
100
AcDbLine
 10
26.65
 20
35.49999999999999
 30
0.0
 11
1.549999999999997
 21
35.5
 31
0.0
  0
LINE
  5
B9
330
70
100
AcDbEntity
  8
Top v2_Top v1_0
100
AcDbLine
 10
-27.49700625226497
 20
17.79777078263054
 30
0.0
 11
-27.49983037547611
 21
12.80016952869687
 31
0.0
  0
ARC
  5
BA
330
70
100
AcDbEntity
  8
Top v2_Top v1_0
100
AcDbCircle
 10
-5.3
 20
12.79999999999999
 30
0.0
 40
0.2999999999999954
100
AcDbArc
 50
270.0
 51
0.0000000000010178
  0
ARC
  5
BB
330
70
100
AcDbEntity
  8
Top v2_Top v1_0
100
AcDbCircle
 10
-25.1220236573486
 20
16.82011975394986
 30
0.0
 40
0.0499999999999994
100
AcDbArc
 50
21.99999999999983
 51
103.7867892982183
  0
LINE
  5
BC
330
70
100
AcDbEntity
  8
Top v2_Top v1_0
100
AcDbLine
 10
29.0
 20
32.8
 30
0.0
 11
29.0
 21
35.2
 31
0.0
  0
ARC
  5
BD
330
70
100
AcDbEntity
  8
Top v2_Top v1_0
100
AcDbCircle
 10
-21.7499708282626
 20
12.55
 30
0.0
 40
0.0500000000000011
100
AcDbArc
 50
179.9676224021509
 51
270.0
  0
LINE
  5
BE
330
70
100
AcDbEntity
  8
Top v2_Top v1_0
100
AcDbLine
 10
28.2
 20
33.73499091785735
 30
0.0
 11
26.7
 21
33.73499091785735
 31
0.0
  0
LINE
  5
BF
330
70
100
AcDbEntity
  8
Top v2_Top v1_0
100
AcDbLine
 10
-20.33068475108179
 20
19.77668256896165
 30
0.0
 11
-22.64864438749876
 21
18.84016608542187
 31
0.0
  0
LINE
  5
C0
330
70
100
AcDbEntity
  8
Top v2_Top v1_0
100
AcDbLine
 10
-19.76877486095792
 20
18.38590678711147
 30
0.0
 11
-20.33068475108179
 21
19.77668256896165
 31
0.0
  0
LINE
  5
C1
330
70
100
AcDbEntity
  8
Top v2_Top v1_0
100
AcDbLine
 10
12.58020260609344
 20
15.02291126320334
 30
0.0
 11
12.51667122345591
 21
15.02291126320334
 31
0.0
  0
ARC
  5
C2
330
70
100
AcDbEntity
  8
Top v2_Top v1_0
100
AcDbCircle
 10
-21.43662182762816
 20
21.53837786718163
 30
0.0
 40
0.5
210
0.0
220
0.0
230
-1.0
100
AcDbArc
 50
0.0
 51
90.0
  0
ARC
  5
C3
330
70
100
AcDbEntity
  8
Top v2_Top v1_0
100
AcDbCircle
 10
-9.464798560235186
 20
21.45898549779588
 30
0.0
 40
0.5000000000000018
210
0.0
220
0.0
230
-1.0
100
AcDbArc
 50
0.0
 51
89.9999999999998
  0
LINE
  5
C4
330
70
100
AcDbEntity
  8
Top v2_Top v1_0
100
AcDbLine
 10
3.453534223588299
 20
21.95898549779588
 30
0.0
 11
3.563306101123107
 21
21.95898549779588
 31
0.0
  0
LINE
  5
C5
330
70
100
AcDbEntity
  8
Top v2_Top v1_0
100
AcDbLine
 10
7.06893826944655
 20
12.80336750813368
 30
0.0
 11
7.06893826944655
 21
5.728571788849285
 31
0.0
  0
LINE
  5
C6
330
70
100
AcDbEntity
  8
Top v2_Top v1_0
100
AcDbLine
 10
0.6000000000000015
 20
24.03095880062484
 30
0.0
 11
0.6000000000000001
 21
25.09945085489781
 31
0.0
  0
ARC
  5
C7
330
70
100
AcDbEntity
  8
Top v2_Top v1_0
100
AcDbCircle
 10
28.7
 20
23.73095880062483
 30
0.0
 40
0.3000000000000114
100
AcDbArc
 50
0.000000000001357
 51
90.0
  0
LINE
  5
C8
330
70
100
AcDbEntity
  8
Top v2_Top v1_0
100
AcDbLine
 10
1.499999999999977
 20
21.03095880062483
 30
-0.0000000000000063
 11
1.499999999999977
 21
18.53095880062483
 31
-0.0000000000000055
  0
LINE
  5
C9
330
70
100
AcDbEntity
  8
Top v2_Top v1_0
100
AcDbLine
 10
27.6
 20
24.03095880062484
 30
0.0
 11
0.6000000000000015
 21
24.03095880062484
 31
0.0
  0
LINE
  5
CA
330
70
100
AcDbEntity
  8
Top v2_Top v1_0
100
AcDbLine
 10
15.06854388667663
 20
5.821052778643887
 30
0.0
 11
15.06854388667663
 21
12.94208899282556
 31
0.0
  0
LINE
  5
CB
330
70
100
AcDbEntity
  8
Top v2_Top v1_0
100
AcDbLine
 10
7.06893826944655
 20
21.50522599269319
 30
0.0
 11
7.06893826944655
 21
15.52291126320333
 31
0.0
  0
ARC
  5
CC
330
70
100
AcDbEntity
  8
Top v2_Top v1_0
100
AcDbCircle
 10
-0.5000000000000009
 20
23.73095880062483
 30
0.0
 40
0.3000000000000007
100
AcDbArc
 50
89.99999999999978
 51
179.9999999999986
  0
LINE
  5
CD
330
70
100
AcDbEntity
  8
Top v2_Top v1_0
100
AcDbLine
 10
29.0
 20
4.173166615624096
 30
0.0
 11
29.00000000000001
 21
23.73095880062484
 31
0.0
  0
LINE
  5
CE
330
70
100
AcDbEntity
  8
Top v2_Top v1_0
100
AcDbLine
 10
-0.8000000000000023
 20
23.73095880062484
 30
0.0
 11
-0.8000000000000021
 21
4.173166615624101
 31
0.0
  0
ARC
  5
CF
330
70
100
AcDbEntity
  8
Top v2_Top v1_0
100
AcDbCircle
 10
-6.568938269446547
 20
21.50522599269319
 30
0.0
 40
0.5
210
0.0
220
0.0
230
-1.0
100
AcDbArc
 50
90.0000000000003
 51
180.0
  0
LINE
  5
D0
330
70
100
AcDbEntity
  8
Top v2_Top v1_0
100
AcDbLine
 10
28.2
 20
25.09945085489781
 30
0.0
 11
27.6
 21
25.09945085489781
 31
0.0
  0
LINE
  5
D1
330
70
100
AcDbEntity
  8
Top v2_Top v1_0
100
AcDbLine
 10
1.499999999999976
 20
6.873166615624192
 30
-0.0000000000000028
 11
-0.0000000000000233
 21
6.873166615624192
 31
-0.0000000000000027
  0
LINE
  5
D2
330
70
100
AcDbEntity
  8
Top v2_Top v1_0
100
AcDbLine
 10
27.6
 20
25.09945085489781
 30
0.0
 11
27.6
 21
24.03095880062484
 31
0.0
  0
LINE
  5
D3
330
70
100
AcDbEntity
  8
Top v2_Top v1_0
100
AcDbLine
 10
8.964798560235182
 20
5.821052778643887
 30
0.0
 11
8.964798560235182
 21
12.98832948772284
 31
0.0
  0
LINE
  5
D4
330
70
100
AcDbEntity
  8
Top v2_Top v1_0
100
AcDbLine
 10
28.19999999999998
 20
9.373166615624107
 30
-0.0000000000000028
 11
28.19999999999998
 21
6.873166615624105
 31
-0.0000000000000019
  0
LINE
  5
D5
330
70
100
AcDbEntity
  8
Top v2_Top v1_0
100
AcDbLine
 10
28.19999999999998
 20
18.53095880062483
 30
-0.0000000000000058
 11
26.69999999999998
 21
18.53095880062483
 31
-0.0000000000000044
  0
LINE
  5
D6
330
70
100
AcDbEntity
  8
Top v2_Top v1_0
100
AcDbLine
 10
1.499999999999985
 20
9.373166615624192
 30
-0.0000000000000036
 11
1.499999999999976
 21
6.873166615624192
 31
-0.0000000000000028
  0
LINE
  5
D7
330
70
100
AcDbEntity
  8
Top v2_Top v1_0
100
AcDbLine
 10
20.93662182762816
 20
12.99111555907224
 30
0.0
 11
21.96957697304222
 21
12.99111555907224
 31
0.0
  0
LINE
  5
D8
330
70
100
AcDbEntity
  8
Top v2_Top v1_0
100
AcDbLine
 10
9.982089447975424
 20
12.98832948772284
 30
0.0
 11
9.982089447975424
 21
5.821052778643887
 31
0.0
  0
LINE
  5
D9
330
70
100
AcDbEntity
  8
Top v2_Top v1_0
100
AcDbLine
 10
8.964798560235182
 20
12.98832948772284
 30
0.0
 11
9.982089447975424
 21
12.98832948772284
 31
0.0
  0
ARC
  5
DA
330
70
100
AcDbEntity
  8
Top v2_Top v1_0
100
AcDbCircle
 10
-6.551647381706311
 20
15.52291126320334
 30
0.0
 40
0.5
210
0.0
220
0.0
230
-1.0
100
AcDbArc
 50
270.0
 51
359.9999999999998
  0
LINE
  5
DB
330
70
100
AcDbEntity
  8
Top v2_Top v1_0
100
AcDbLine
 10
16.03959427951959
 20
5.821052778643887
 30
0.0
 11
15.06854388667663
 21
5.821052778643887
 31
0.0
  0
ARC
  5
DC
330
70
100
AcDbEntity
  8
Top v2_Top v1_0
100
AcDbCircle
 10
-6.568938269446549
 20
15.52291126320333
 30
0.0
 40
0.5000000000000009
210
0.0
220
0.0
230
-1.0
100
AcDbArc
 50
180.0
 51
269.9999999999999
  0
LINE
  5
DD
330
70
100
AcDbEntity
  8
Top v2_Top v1_0
100
AcDbLine
 10
0.0
 20
24.03095880062483
 30
0.0
 11
-0.4999999999999998
 21
24.03095880062483
 31
0.0
  0
LINE
  5
DE
330
70
100
AcDbEntity
  8
Top v2_Top v1_0
100
AcDbLine
 10
6.56893826944655
 20
15.02291126320333
 30
0.0
 11
6.551647381706311
 21
15.02291126320334
 31
0.0
  0
LINE
  5
DF
330
70
100
AcDbEntity
  8
Top v2_Top v1_0
100
AcDbLine
 10
0.6000000000000001
 20
25.09945085489781
 30
0.0
 11
0.0
 21
25.09945085489781
 31
0.0
  0
LINE
  5
E0
330
70
100
AcDbEntity
  8
Top v2_Top v1_0
100
AcDbLine
 10
28.7
 20
24.03095880062484
 30
0.0
 11
28.2
 21
24.03095880062483
 31
0.0
  0
LINE
  5
E1
330
70
100
AcDbEntity
  8
Top v2_Top v1_0
100
AcDbLine
 10
21.96957697304222
 20
12.99111555907224
 30
0.0
 11
21.96957697304222
 21
5.689191255283161
 31
0.0
  0
LINE
  5
E2
330
70
100
AcDbEntity
  8
Top v2_Top v1_0
100
AcDbLine
 10
26.69999999999998
 20
18.53095880062483
 30
-0.0000000000000044
 11
26.69999999999998
 21
21.03095880062483
 31
-0.0000000000000048
  0
LINE
  5
E3
330
70
100
AcDbEntity
  8
Top v2_Top v1_0
100
AcDbLine
 10
-0.0000000000000249
 20
18.53095880062483
 30
0.0000000000000209
 11
0.0000000000000239
 21
21.03095880062483
 31
-0.0000000000000066
  0
LINE
  5
E4
330
70
100
AcDbEntity
  8
Top v2_Top v1_0
100
AcDbLine
 10
6.051647381706311
 20
15.52291126320334
 30
0.0
 11
6.051647381706309
 21
21.50522599269319
 31
0.0
  0
ARC
  5
E5
330
70
100
AcDbEntity
  8
Top v2_Top v1_0
100
AcDbCircle
 10
-0.5000000000000006
 20
4.173166615624102
 30
0.0
 40
0.3000000000000016
100
AcDbArc
 50
180.0000000000001
 51
269.9999999999994
  0
LINE
  5
E6
330
70
100
AcDbEntity
  8
Top v2_Top v1_0
100
AcDbLine
 10
15.06854388667663
 20
12.94208899282556
 30
0.0
 11
16.03959427951959
 21
12.94208899282556
 31
0.0
  0
LINE
  5
E7
330
70
100
AcDbEntity
  8
Top v2_Top v1_0
100
AcDbLine
 10
26.69999999999998
 20
21.03095880062483
 30
-0.0000000000000048
 11
28.19999999999998
 21
21.03095880062483
 31
-0.0000000000000066
  0
LINE
  5
E8
330
70
100
AcDbEntity
  8
Top v2_Top v1_0
100
AcDbLine
 10
21.96957697304222
 20
5.689191255283161
 30
0.0
 11
20.93662182762816
 21
5.689191255283159
 31
0.0
  0
LINE
  5
E9
330
70
100
AcDbEntity
  8
Top v2_Top v1_0
100
AcDbLine
 10
26.69999999999998
 20
9.373166615624107
 30
-0.0000000000000026
 11
28.19999999999998
 21
9.373166615624107
 31
-0.0000000000000028
  0
LINE
  5
EA
330
70
100
AcDbEntity
  8
Top v2_Top v1_0
100
AcDbLine
 10
20.93662182762816
 20
5.689191255283159
 30
0.0
 11
20.93662182762816
 21
12.99111555907224
 31
0.0
  0
LINE
  5
EB
330
70
100
AcDbEntity
  8
Top v2_Top v1_0
100
AcDbLine
 10
28.19999999999998
 20
21.03095880062483
 30
-0.0000000000000066
 11
28.19999999999998
 21
18.53095880062483
 31
-0.0000000000000058
  0
LINE
  5
EC
330
70
100
AcDbEntity
  8
Top v2_Top v1_0
100
AcDbLine
 10
-0.0000000000000233
 20
6.873166615624192
 30
-0.0000000000000027
 11
-0.000000000000015
 21
9.373166615624192
 31
-0.0000000000000033
  0
LINE
  5
ED
330
70
100
AcDbEntity
  8
Top v2_Top v1_0
100
AcDbLine
 10
28.2
 20
24.03095880062483
 30
0.0
 11
28.2
 21
25.09945085489781
 31
0.0
  0
ARC
  5
EE
330
70
100
AcDbEntity
  8
Top v2_Top v1_0
100
AcDbCircle
 10
28.7
 20
4.173166615624102
 30
0.0
 40
0.300000000000002
100
AcDbArc
 50
270.0
 51
359.999999999999
  0
LINE
  5
EF
330
70
100
AcDbEntity
  8
Top v2_Top v1_0
100
AcDbLine
 10
0.0
 20
25.09945085489781
 30
0.0
 11
0.0
 21
24.03095880062483
 31
0.0
  0
LINE
  5
F0
330
70
100
AcDbEntity
  8
Top v2_Top v1_0
100
AcDbLine
 10
-0.000000000000015
 20
9.373166615624192
 30
-0.0000000000000033
 11
1.499999999999985
 21
9.373166615624192
 31
-0.0000000000000036
  0
LINE
  5
F1
330
70
100
AcDbEntity
  8
Top v2_Top v1_0
100
AcDbLine
 10
-0.5000000000000037
 20
3.8731666156241
 30
0.0
 11
28.7
 21
3.8731666156241
 31
0.0
  0
LINE
  5
F2
330
70
100
AcDbEntity
  8
Top v2_Top v1_0
100
AcDbLine
 10
28.19999999999998
 20
6.873166615624105
 30
-0.0000000000000019
 11
26.69999999999998
 21
6.873166615624105
 31
-0.0000000000000022
  0
LINE
  5
F3
330
70
100
AcDbEntity
  8
Top v2_Top v1_0
100
AcDbLine
 10
9.982089447975424
 20
5.821052778643887
 30
0.0
 11
8.964798560235182
 21
5.821052778643887
 31
0.0
  0
LINE
  5
F4
330
70
100
AcDbEntity
  8
Top v2_Top v1_0
100
AcDbLine
 10
26.69999999999998
 20
6.873166615624105
 30
-0.0000000000000022
 11
26.69999999999998
 21
9.373166615624107
 31
-0.0000000000000026
  0
LINE
  5
F5
330
70
100
AcDbEntity
  8
Top v2_Top v1_0
100
AcDbLine
 10
0.0000000000000239
 20
21.03095880062483
 30
-0.0000000000000066
 11
1.499999999999977
 21
21.03095880062483
 31
-0.0000000000000063
  0
LINE
  5
F6
330
70
100
AcDbEntity
  8
Top v2_Top v1_0
100
AcDbLine
 10
1.499999999999977
 20
18.53095880062483
 30
-0.0000000000000055
 11
-0.0000000000000249
 21
18.53095880062483
 31
0.0000000000000209
  0
LINE
  5
F7
330
70
100
AcDbEntity
  8
Top v2_Top v1_0
100
AcDbLine
 10
16.03959427951959
 20
12.94208899282556
 30
0.0
 11
16.03959427951959
 21
5.821052778643887
 31
0.0
  0
ARC
  5
F8
330
70
100
AcDbEntity
  8
Top v2_Top v1_0
100
AcDbCircle
 10
-6.551647381706311
 20
21.50522599269319
 30
0.0
 40
0.5000000000000027
210
0.0
220
0.0
230
-1.0
100
AcDbArc
 50
0.0
 51
89.99999999999991
  0
LINE
  5
F9
330
70
100
AcDbEntity
  8
Top v2_Top v1_0
100
AcDbLine
 10
15.58583477441688
 20
15.02291126320333
 30
0.0
 11
15.56854388667663
 21
15.02291126320334
 31
0.0
  0
LINE
  5
FA
330
70
100
AcDbEntity
  8
Top v2_Top v1_0
100
AcDbLine
 10
3.563306101123107
 20
15.02291126320333
 30
0.0
 11
3.453534223588299
 21
15.02291126320334
 31
0.0
  0
LINE
  5
FB
330
70
100
AcDbEntity
  8
Top v2_Top v1_0
100
AcDbLine
 10
23.99986812092503
 20
15.43043027340877
 30
0.0
 11
23.99986812092503
 21
21.60961615307226
 31
0.0
  0
ARC
  5
FC
330
70
100
AcDbEntity
  8
Top v2_Top v1_0
100
AcDbCircle
 10
-3.453534223588301
 20
21.45898549779588
 30
0.0
 40
0.5000000000000018
210
0.0
220
0.0
230
-1.0
100
AcDbArc
 50
0.0
 51
89.9999999999998
  0
LINE
  5
FD
330
70
100
AcDbEntity
  8
Top v2_Top v1_0
100
AcDbLine
 10
9.982089447975424
 20
21.45898549779588
 30
0.0
 11
9.982089447975425
 21
15.52291126320333
 31
0.0
  0
LINE
  5
FE
330
70
100
AcDbEntity
  8
Top v2_Top v1_0
100
AcDbLine
 10
15.56854388667663
 20
22.00522599269319
 30
0.0
 11
15.58583477441687
 21
22.00522599269319
 31
0.0
  0
LINE
  5
FF
330
70
100
AcDbEntity
  8
Top v2_Top v1_0
100
AcDbLine
 10
18.07417605500008
 20
12.98832948772285
 30
0.0
 11
19.09146694274032
 21
12.98832948772284
 31
0.0
  0
ARC
  5
100
330
70
100
AcDbEntity
  8
Top v2_Top v1_0
100
AcDbCircle
 10
-12.58020260609343
 20
21.55146648759044
 30
0.0
 40
0.5
210
0.0
220
0.0
230
-1.0
100
AcDbArc
 50
90.00000000000103
 51
179.9999999999996
  0
LINE
  5
101
330
70
100
AcDbEntity
  8
Top v2_Top v1_0
100
AcDbLine
 10
2.953534223588298
 20
12.94208899282556
 30
0.0
 11
4.063306101123107
 21
12.94208899282556
 31
0.0
  0
LINE
  5
102
330
70
100
AcDbEntity
  8
Top v2_Top v1_0
100
AcDbLine
 10
24.60406155222973
 20
14.93043027340877
 30
0.0
 11
24.49986812092503
 21
14.93043027340877
 31
0.0
  0
LINE
  5
103
330
70
100
AcDbEntity
  8
Top v2_Top v1_0
100
AcDbLine
 10
9.464798560235184
 20
21.95898549779588
 30
0.0
 11
9.482089447975424
 21
21.95898549779588
 31
0.0
  0
ARC
  5
104
330
70
100
AcDbEntity
  8
Top v2_Top v1_0
100
AcDbCircle
 10
-15.56854388667663
 20
21.50522599269319
 30
0.0
 40
0.5000000000000018
210
0.0
220
0.0
230
-1.0
100
AcDbArc
 50
0.0
 51
89.9999999999998
  0
LINE
  5
105
330
70
100
AcDbEntity
  8
Top v2_Top v1_0
100
AcDbLine
 10
19.09146694274032
 20
21.45898549779588
 30
0.0
 11
19.09146694274032
 21
15.43043027340877
 31
0.0
  0
ARC
  5
106
330
70
100
AcDbEntity
  8
Top v2_Top v1_0
100
AcDbCircle
 10
-15.58583477441687
 20
21.50522599269319
 30
0.0
 40
0.5
210
0.0
220
0.0
230
-1.0
100
AcDbArc
 50
90.0000000000004
 51
180.0
  0
ARC
  5
107
330
70
100
AcDbEntity
  8
Top v2_Top v1_0
100
AcDbCircle
 10
-24.49986812092503
 20
15.43043027340877
 30
0.0
 40
0.5
210
0.0
220
0.0
230
-1.0
100
AcDbArc
 50
270.0
 51
0.0
  0
LINE
  5
108
330
70
100
AcDbEntity
  8
Top v2_Top v1_0
100
AcDbLine
 10
23.99986812092503
 20
5.689191255283159
 30
0.0
 11
23.99986812092503
 21
12.91987727318162
 31
0.0
  0
LINE
  5
109
330
70
100
AcDbEntity
  8
Top v2_Top v1_0
100
AcDbLine
 10
16.08583477441686
 20
21.50522599269319
 30
0.0
 11
16.08583477441688
 21
15.52291126320333
 31
0.0
  0
LINE
  5
10A
330
70
100
AcDbEntity
  8
Top v2_Top v1_0
100
AcDbLine
 10
25.10406155222973
 20
12.91987727318162
 30
0.0
 11
25.10406155222973
 21
5.689191255283159
 31
0.0
  0
ARC
  5
10B
330
70
100
AcDbEntity
  8
Top v2_Top v1_0
100
AcDbCircle
 10
-18.59146694274032
 20
15.43043027340877
 30
0.0
 40
0.5
210
0.0
220
0.0
230
-1.0
100
AcDbArc
 50
180.0000000000002
 51
269.9999999999996
  0
LINE
  5
10C
330
70
100
AcDbEntity
  8
Top v2_Top v1_0
100
AcDbLine
 10
4.063306101123107
 20
21.45898549779588
 30
0.0
 11
4.063306101123107
 21
15.52291126320333
 31
0.0
  0
LINE
  5
10D
330
70
100
AcDbEntity
  8
Top v2_Top v1_0
100
AcDbLine
 10
7.06893826944655
 20
5.728571788849285
 30
0.0
 11
6.051647381706309
 21
5.728571788849286
 31
0.0
  0
LINE
  5
10E
330
70
100
AcDbEntity
  8
Top v2_Top v1_0
100
AcDbLine
 10
12.98772161629887
 20
12.98832948772284
 30
0.0
 11
12.98772161629887
 21
5.821052778643887
 31
0.0
  0
LINE
  5
10F
330
70
100
AcDbEntity
  8
Top v2_Top v1_0
100
AcDbLine
 10
9.482089447975424
 20
15.02291126320333
 30
0.0
 11
9.464798560235182
 21
15.02291126320334
 31
0.0
  0
LINE
  5
110
330
70
100
AcDbEntity
  8
Top v2_Top v1_0
100
AcDbLine
 10
6.051647381706309
 20
12.80336750813368
 30
0.0
 11
7.06893826944655
 21
12.80336750813368
 31
0.0
  0
LINE
  5
111
330
70
100
AcDbEntity
  8
Top v2_Top v1_0
100
AcDbLine
 10
24.49986812092503
 20
22.10961615307226
 30
0.0
 11
24.60406155222973
 21
22.10961615307226
 31
0.0
  0
LINE
  5
112
330
70
100
AcDbEntity
  8
Top v2_Top v1_0
100
AcDbLine
 10
18.07417605500007
 20
15.43043027340877
 30
0.0
 11
18.07417605500008
 21
21.45898549779588
 31
0.0
  0
LINE
  5
113
330
70
100
AcDbEntity
  8
Top v2_Top v1_0
100
AcDbLine
 10
15.06854388667663
 20
15.52291126320334
 30
0.0
 11
15.06854388667663
 21
21.50522599269319
 31
0.0
  0
ARC
  5
114
330
70
100
AcDbEntity
  8
Top v2_Top v1_0
100
AcDbCircle
 10
-24.60406155222973
 20
15.43043027340877
 30
0.0
 40
0.5
210
0.0
220
0.0
230
-1.0
100
AcDbArc
 50
180.0
 51
270.0
  0
LINE
  5
115
330
70
100
AcDbEntity
  8
Top v2_Top v1_0
100
AcDbLine
 10
21.96957697304221
 20
21.53837786718163
 30
0.0
 11
21.96957697304222
 21
15.43043027340877
 31
0.0
  0
LINE
  5
116
330
70
100
AcDbEntity
  8
Top v2_Top v1_0
100
AcDbLine
 10
19.09146694274032
 20
5.774812283746577
 30
0.0
 11
18.07417605500008
 21
5.774812283746577
 31
0.0
  0
LINE
  5
117
330
70
100
AcDbEntity
  8
Top v2_Top v1_0
100
AcDbLine
 10
18.57417605500008
 20
21.95898549779588
 30
0.0
 11
18.59146694274032
 21
21.95898549779588
 31
0.0
  0
LINE
  5
118
330
70
100
AcDbEntity
  8
Top v2_Top v1_0
100
AcDbLine
 10
18.07417605500008
 20
5.774812283746577
 30
0.0
 11
18.07417605500008
 21
12.98832948772285
 31
0.0
  0
ARC
  5
119
330
70
100
AcDbEntity
  8
Top v2_Top v1_0
100
AcDbCircle
 10
-15.58583477441688
 20
15.52291126320333
 30
0.0
 40
0.4999999999999965
210
0.0
220
0.0
230
-1.0
100
AcDbArc
 50
179.9999999999996
 51
270.0
  0
ARC
  5
11A
330
70
100
AcDbEntity
  8
Top v2_Top v1_0
100
AcDbCircle
 10
-18.57417605500008
 20
15.43043027340877
 30
0.0
 40
0.5
210
0.0
220
0.0
230
-1.0
100
AcDbArc
 50
270.0
 51
0.0
  0
LINE
  5
11B
330
70
100
AcDbEntity
  8
Top v2_Top v1_0
100
AcDbLine
 10
20.93662182762816
 20
15.43043027340877
 30
0.0
 11
20.93662182762816
 21
21.53837786718163
 31
0.0
  0
LINE
  5
11C
330
70
100
AcDbEntity
  8
Top v2_Top v1_0
100
AcDbLine
 10
8.964798560235182
 20
15.52291126320334
 30
0.0
 11
8.964798560235184
 21
21.45898549779588
 31
0.0
  0
ARC
  5
11D
330
70
100
AcDbEntity
  8
Top v2_Top v1_0
100
AcDbCircle
 10
-9.482089447975424
 20
21.45898549779588
 30
0.0
 40
0.4999999999999965
210
0.0
220
0.0
230
-1.0
100
AcDbArc
 50
90.0
 51
180.0
  0
LINE
  5
11E
330
70
100
AcDbEntity
  8
Top v2_Top v1_0
100
AcDbLine
 10
2.953534223588299
 20
15.52291126320334
 30
0.0
 11
2.953534223588299
 21
21.45898549779588
 31
0.0
  0
LINE
  5
11F
330
70
100
AcDbEntity
  8
Top v2_Top v1_0
100
AcDbLine
 10
4.063306101123107
 20
5.913533768438425
 30
0.0
 11
2.953534223588298
 21
5.913533768438425
 31
0.0
  0
ARC
  5
120
330
70
100
AcDbEntity
  8
Top v2_Top v1_0
100
AcDbCircle
 10
-12.51667122345591
 20
15.52291126320334
 30
0.0
 40
0.5
210
0.0
220
0.0
230
-1.0
100
AcDbArc
 50
270.0
 51
359.9999999999998
  0
ARC
  5
121
330
70
100
AcDbEntity
  8
Top v2_Top v1_0
100
AcDbCircle
 10
-18.57417605500008
 20
21.45898549779588
 30
0.0
 40
0.5
210
0.0
220
0.0
230
-1.0
100
AcDbArc
 50
0.0
 51
90.0
  0
ARC
  5
122
330
70
100
AcDbEntity
  8
Top v2_Top v1_0
100
AcDbCircle
 10
-9.482089447975424
 20
15.52291126320333
 30
0.0
 40
0.5000000000000018
210
0.0
220
0.0
230
-1.0
100
AcDbArc
 50
180.0000000000002
 51
270.0
  0
ARC
  5
123
330
70
100
AcDbEntity
  8
Top v2_Top v1_0
100
AcDbCircle
 10
-12.58020260609343
 20
15.52291126320334
 30
0.0
 40
0.5000000000000036
210
0.0
220
0.0
230
-1.0
100
AcDbArc
 50
180.0000000000008
 51
269.999999999999
  0
ARC
  5
124
330
70
100
AcDbEntity
  8
Top v2_Top v1_0
100
AcDbCircle
 10
-24.49986812092504
 20
21.60961615307225
 30
0.0
 40
0.5000000000000107
210
0.0
220
0.0
230
-1.0
100
AcDbArc
 50
0.0000000000012213
 51
89.99999999999877
  0
LINE
  5
125
330
70
100
AcDbEntity
  8
Top v2_Top v1_0
100
AcDbLine
 10
18.59146694274032
 20
14.93043027340877
 30
0.0
 11
18.57417605500008
 21
14.93043027340877
 31
0.0
  0
ARC
  5
126
330
70
100
AcDbEntity
  8
Top v2_Top v1_0
100
AcDbCircle
 10
-18.59146694274032
 20
21.45898549779588
 30
0.0
 40
0.5
210
0.0
220
0.0
230
-1.0
100
AcDbArc
 50
90.0
 51
180.0
  0
ARC
  5
127
330
70
100
AcDbEntity
  8
Top v2_Top v1_0
100
AcDbCircle
 10
-21.46957697304221
 20
21.53837786718163
 30
0.0
 40
0.5
210
0.0
220
0.0
230
-1.0
100
AcDbArc
 50
90.00000000000081
 51
180.0
  0
ARC
  5
128
330
70
100
AcDbEntity
  8
Top v2_Top v1_0
100
AcDbCircle
 10
-24.60406155222973
 20
21.60961615307226
 30
0.0
 40
0.5
210
0.0
220
0.0
230
-1.0
100
AcDbArc
 50
90.0
 51
180.0
  0
LINE
  5
129
330
70
100
AcDbEntity
  8
Top v2_Top v1_0
100
AcDbLine
 10
12.51667122345591
 20
22.05146648759045
 30
0.0
 11
12.58020260609344
 21
22.05146648759044
 31
0.0
  0
LINE
  5
12A
330
70
100
AcDbEntity
  8
Top v2_Top v1_0
100
AcDbLine
 10
21.43662182762816
 20
22.03837786718163
 30
0.0
 11
21.46957697304222
 21
22.03837786718163
 31
0.0
  0
ARC
  5
12B
330
70
100
AcDbEntity
  8
Top v2_Top v1_0
100
AcDbCircle
 10
-21.43662182762816
 20
15.43043027340877
 30
0.0
 40
0.5000000000000018
210
0.0
220
0.0
230
-1.0
100
AcDbArc
 50
270.0
 51
359.9999999999998
  0
LINE
  5
12C
330
70
100
AcDbEntity
  8
Top v2_Top v1_0
100
AcDbLine
 10
6.051647381706309
 20
5.728571788849286
 30
0.0
 11
6.051647381706309
 21
12.80336750813368
 31
0.0
  0
ARC
  5
12D
330
70
100
AcDbEntity
  8
Top v2_Top v1_0
100
AcDbCircle
 10
-3.563306101123104
 20
15.52291126320333
 30
0.0
 40
0.5000000000000023
210
0.0
220
0.0
230
-1.0
100
AcDbArc
 50
180.0000000000002
 51
269.9999999999998
  0
ARC
  5
12E
330
70
100
AcDbEntity
  8
Top v2_Top v1_0
100
AcDbCircle
 10
-9.464798560235186
 20
15.52291126320334
 30
0.0
 40
0.5
210
0.0
220
0.0
230
-1.0
100
AcDbArc
 50
270.0000000000004
 51
0.0
  0
ARC
  5
12F
330
70
100
AcDbEntity
  8
Top v2_Top v1_0
100
AcDbCircle
 10
-12.5166712234559
 20
21.55146648759045
 30
0.0
 40
0.4999999999999947
210
0.0
220
0.0
230
-1.0
100
AcDbArc
 50
359.9999999999996
 51
90.00000000000062
  0
LINE
  5
130
330
70
100
AcDbEntity
  8
Top v2_Top v1_0
100
AcDbLine
 10
12.01667122345591
 20
15.52291126320334
 30
0.0
 11
12.01667122345591
 21
21.55146648759045
 31
0.0
  0
LINE
  5
131
330
70
100
AcDbEntity
  8
Top v2_Top v1_0
100
AcDbLine
 10
13.08020260609344
 20
21.55146648759044
 30
0.0
 11
13.08020260609343
 21
15.52291126320333
 31
0.0
  0
ARC
  5
132
330
70
100
AcDbEntity
  8
Top v2_Top v1_0
100
AcDbCircle
 10
-3.453534223588301
 20
15.52291126320334
 30
0.0
 40
0.5
210
0.0
220
0.0
230
-1.0
100
AcDbArc
 50
270.0000000000002
 51
359.9999999999998
  0
ARC
  5
133
330
70
100
AcDbEntity
  8
Top v2_Top v1_0
100
AcDbCircle
 10
-3.563306101123106
 20
21.45898549779588
 30
0.0
 40
0.4999999999999965
210
0.0
220
0.0
230
-1.0
100
AcDbArc
 50
90.00000000000005
 51
180.0
  0
LINE
  5
134
330
70
100
AcDbEntity
  8
Top v2_Top v1_0
100
AcDbLine
 10
2.953534223588298
 20
5.913533768438425
 30
0.0
 11
2.953534223588298
 21
12.94208899282556
 31
0.0
  0
ARC
  5
135
330
70
100
AcDbEntity
  8
Top v2_Top v1_0
100
AcDbCircle
 10
-21.46957697304221
 20
15.43043027340877
 30
0.0
 40
0.5000000000000036
210
0.0
220
0.0
230
-1.0
100
AcDbArc
 50
180.0000000000002
 51
269.9999999999988
  0
ARC
  5
136
330
70
100
AcDbEntity
  8
Top v2_Top v1_0
100
AcDbCircle
 10
-15.56854388667663
 20
15.52291126320334
 30
0.0
 40
0.5
210
0.0
220
0.0
230
-1.0
100
AcDbArc
 50
270.0
 51
359.9999999999998
  0
LINE
  5
137
330
70
100
AcDbEntity
  8
Top v2_Top v1_0
100
AcDbLine
 10
6.551647381706311
 20
22.00522599269319
 30
0.0
 11
6.56893826944655
 21
22.00522599269319
 31
0.0
  0
LINE
  5
138
330
70
100
AcDbEntity
  8
Top v2_Top v1_0
100
AcDbLine
 10
21.46957697304222
 20
14.93043027340877
 30
0.0
 11
21.43662182762816
 21
14.93043027340877
 31
0.0
  0
LINE
  5
139
330
70
100
AcDbEntity
  8
Top v2_Top v1_0
100
AcDbLine
 10
4.063306101123107
 20
12.94208899282556
 30
0.0
 11
4.063306101123107
 21
5.913533768438425
 31
0.0
  0
LINE
  5
13A
330
70
100
AcDbEntity
  8
Top v2_Top v1_0
100
AcDbLine
 10
25.10406155222973
 20
21.60961615307226
 30
0.0
 11
25.10406155222973
 21
15.43043027340877
 31
0.0
  0
SPLINE
  5
13B
330
70
100
AcDbEntity
  8
Top v2_Top v1_0
100
AcDbSpline
210
0.0
220
0.0
230
1.0
 70
     8
 71
     3
 72
     9
 73
     5
 74
     0
 42
0.000000001
 43
0.0000000001
 40
0.0
 40
0.0
 40
0.0
 40
0.0
 40
0.0843501436133767
 40
0.1644271969282789
 40
0.1644271969282789
 40
0.1644271969282789
 40
0.1644271969282789
 10
-17.49693228436041
 20
31.08915327917517
 30
0.0
 10
-17.46961293853589
 20
31.0814582084697
 30
0.0
 10
-17.41635821645231
 20
31.06645789131476
 30
0.0
 10
-17.37191764723103
 20
31.03355407550359
 30
0.0
 10
-17.35027481747198
 20
31.01752971540868
 30
0.0
  0
LINE
  5
13C
330
70
100
AcDbEntity
  8
Top v2_Top v1_0
100
AcDbLine
 10
29.0
 20
40.3
 30
0.0
 11
29.0
 21
42.7
 31
0.0
  0
LINE
  5
13D
330
70
100
AcDbEntity
  8
Top v2_Top v1_0
100
AcDbLine
 10
-12.16446906258874
 20
34.77472458258927
 30
0.0
 11
-9.845688369264234
 21
33.83787637052594
 31
0.0
  0
LINE
  5
13E
330
70
100
AcDbEntity
  8
Top v2_Top v1_0
100
AcDbLine
 10
-18.73090221119452
 20
31.66418730150641
 30
0.0
 11
-19.11221183968115
 21
31.66418730150641
 31
0.0
  0
LINE
  5
13F
330
70
100
AcDbEntity
  8
Top v2_Top v1_0
100
AcDbLine
 10
1.499999999999999
 20
42.95
 30
0.0
 11
1.5
 21
41.23499091785735
 31
0.0
  0
LINE
  5
140
330
70
100
AcDbEntity
  8
Top v2_Top v1_0
100
AcDbLine
 10
0.8870045498317676
 20
41.33499091785735
 30
0.0
 11
0.8870045498317676
 21
41.39593594552239
 31
0.0
  0
LINE
  5
141
330
70
100
AcDbEntity
  8
Top v2_Top v1_0
100
AcDbLine
 10
-18.01944257450628
 20
31.10347794424475
 30
0.0
 11
-17.67496778202582
 21
31.10347794424475
 31
0.0
  0
LINE
  5
142
330
70
100
AcDbEntity
  8
Top v2_Top v1_0
100
AcDbLine
 10
12.01667122345591
 20
12.98832948772284
 30
0.0
 11
12.98772161629887
 21
12.98832948772284
 31
0.0
  0
LINE
  5
143
330
70
100
AcDbEntity
  8
Top v2_Top v1_0
100
AcDbLine
 10
0.0
 20
41.23499091785735
 30
0.0
 11
1.5
 21
41.23499091785735
 31
0.0
  0
ARC
  5
144
330
70
100
AcDbEntity
  8
Top v2_Top v1_0
100
AcDbCircle
 10
28.25000000000001
 20
42.94999999999999
 30
0.0
 40
0.0500000000000043
100
AcDbArc
 50
90.00000000000813
 51
179.9999999999918
  0
LINE
  5
145
330
70
100
AcDbEntity
  8
Top v2_Top v1_0
100
AcDbLine
 10
-1.752300000000001
 20
42.7
 30
0.0
 11
-1.752300000000001
 21
40.3
 31
0.0
  0
LINE
  5
146
330
70
100
AcDbEntity
  8
Top v2_Top v1_0
100
AcDbLine
 10
26.7
 20
41.23499091785735
 30
0.0
 11
26.7
 21
42.95
 31
0.0
  0
LINE
  5
147
330
70
100
AcDbEntity
  8
Top v2_Top v1_0
100
AcDbLine
 10
-7.631666366736052
 20
31.32568826862276
 30
0.0
 11
-7.424335535379736
 21
31.83885008362066
 31
0.0
  0
ARC
  5
148
330
70
100
AcDbEntity
  8
Top v2_Top v1_0
100
AcDbCircle
 10
-0.0500000000000001
 20
42.95
 30
0.0
 40
0.0500000000000001
100
AcDbArc
 50
0.0
 51
90.00000000000067
  0
LINE
  5
149
330
70
100
AcDbEntity
  8
Top v2_Top v1_0
100
AcDbLine
 10
-9.845688369264234
 20
33.83787637052594
 30
0.0
 11
-10.41666392359104
 21
32.44795714994229
 31
0.0
  0
SPLINE
  5
14A
330
70
100
AcDbEntity
  8
Top v2_Top v1_0
100
AcDbSpline
210
0.0
220
0.0
230
1.0
 70
     8
 71
     3
 72
     9
 73
     5
 74
     0
 42
0.000000001
 43
0.0000000001
 40
0.0
 40
0.0
 40
0.0
 40
0.0
 40
0.0682853213571577
 40
0.1352771400086366
 40
0.1352771400086366
 40
0.1352771400086366
 40
0.1352771400086366
 10
-18.35709597302008
 20
31.9540917767185
 30
0.0
 10
-18.35829807443473
 20
31.93116861030025
 30
0.0
 10
-18.36067950631704
 20
31.88575650223115
 30
0.0
 10
-18.37835586464387
 20
31.84386745885873
 30
0.0
 10
-18.38710953426886
 20
31.82312320600927
 30
0.0
  0
ARC
  5
14B
330
70
100
AcDbEntity
  8
Top v2_Top v1_0
100
AcDbCircle
 10
5.302993699835057
 20
32.79760125393367
 30
0.0
 40
0.2999999999999962
210
0.0
220
0.0
230
-1.0
100
AcDbArc
 50
111.9999999999997
 51
179.9676224021529
  0
LINE
  5
14C
330
70
100
AcDbEntity
  8
Top v2_Top v1_0
100
AcDbLine
 10
-7.016412848480644
 20
32.04765401440941
 30
0.0
 11
-6.515490004630349
 21
33.28748155979918
 31
0.0
  0
LINE
  5
14D
330
70
100
AcDbEntity
  8
Top v2_Top v1_0
100
AcDbLine
 10
28.7
 20
43.0
 30
0.0
 11
28.25000000000001
 21
43.0
 31
0.0
  0
LINE
  5
14E
330
70
100
AcDbEntity
  8
Top v2_Top v1_0
100
AcDbLine
 10
-10.70000090896675
 20
27.5
 30
0.0
 11
-21.8
 21
27.5
 31
0.0
  0
LINE
  5
14F
330
70
100
AcDbEntity
  8
Top v2_Top v1_0
100
AcDbLine
 10
25.10406155222973
 20
5.689191255283159
 30
0.0
 11
23.99986812092503
 21
5.689191255283159
 31
0.0
  0
ARC
  5
150
330
70
100
AcDbEntity
  8
Top v2_Top v1_0
100
AcDbCircle
 10
26.65
 20
42.94999999999999
 30
0.0
 40
0.0500000000000007
100
AcDbArc
 50
0.0000000000081422
 51
90.0
  0
LINE
  5
151
330
70
100
AcDbEntity
  8
Top v2_Top v1_0
100
AcDbLine
 10
12.98772161629887
 20
5.821052778643887
 30
0.0
 11
12.01667122345591
 21
5.821052778643887
 31
0.0
  0
LINE
  5
152
330
70
100
AcDbEntity
  8
Top v2_Top v1_0
100
AcDbLine
 10
-1.4523
 20
40.0
 30
0.0
 11
28.7
 21
40.0
 31
0.0
  0
LINE
  5
153
330
70
100
AcDbEntity
  8
Top v2_Top v1_0
100
AcDbLine
 10
1.5
 20
41.23499091785735
 30
0.0
 11
0.0
 21
41.23499091785735
 31
0.0
  0
LINE
  5
154
330
70
100
AcDbEntity
  8
Top v2_Top v1_0
100
AcDbLine
 10
28.2
 20
41.23499091785735
 30
0.0
 11
26.7
 21
41.23499091785735
 31
0.0
  0
ARC
  5
155
330
70
100
AcDbEntity
  8
Top v2_Top v1_0
100
AcDbCircle
 10
28.7
 20
42.69999999999999
 30
0.0
 40
0.3000000000000043
100
AcDbArc
 50
0.000000000001357
 51
90.0
  0
ARC
  5
156
330
70
100
AcDbEntity
  8
Top v2_Top v1_0
100
AcDbCircle
 10
1.549999999999998
 20
42.95
 30
0.0
 40
0.0499999999999972
100
AcDbArc
 50
90.00000000000049
 51
180.0
  0
LINE
  5
157
330
70
100
AcDbEntity
  8
Top v2_Top v1_0
100
AcDbLine
 10
-0.0500000000000007
 20
43.0
 30
0.0
 11
-1.4523
 21
43.0
 31
0.0
  0
ARC
  5
158
330
70
100
AcDbEntity
  8
Top v2_Top v1_0
100
AcDbCircle
 10
-1.4523
 20
42.7
 30
0.0
 40
0.2999999999999971
100
AcDbArc
 50
89.99999999999992
 51
180.0
  0
ARC
  5
159
330
70
100
AcDbEntity
  8
Top v2_Top v1_0
100
AcDbCircle
 10
-1.4523
 20
40.3
 30
0.0
 40
0.3000000000000003
100
AcDbArc
 50
180.0
 51
270.0000000000001
  0
LINE
  5
15A
330
70
100
AcDbEntity
  8
Top v2_Top v1_0
100
AcDbLine
 10
0.0
 20
41.23499091785735
 30
0.0
 11
0.0
 21
42.95
 31
0.0
  0
LINE
  5
15B
330
70
100
AcDbEntity
  8
Top v2_Top v1_0
100
AcDbLine
 10
12.01667122345591
 20
5.821052778643887
 30
0.0
 11
12.01667122345591
 21
12.98832948772284
 31
0.0
  0
LINE
  5
15C
330
70
100
AcDbEntity
  8
Top v2_Top v1_0
100
AcDbLine
 10
28.2
 20
42.95
 30
0.0
 11
28.2
 21
41.23499091785735
 31
0.0
  0
LINE
  5
15D
330
70
100
AcDbEntity
  8
Top v2_Top v1_0
100
AcDbLine
 10
-18.81071116161871
 20
30.40634297262609
 30
0.0
 11
-18.92053391171026
 21
30.10347794424475
 31
0.0
  0
LINE
  5
15E
330
70
100
AcDbEntity
  8
Top v2_Top v1_0
100
AcDbLine
 10
-21.22218219645265
 20
36.81647612074546
 30
0.0
 11
-12.7263789527126
 21
33.38394880073908
 31
0.0
  0
LINE
  5
15F
330
70
100
AcDbEntity
  8
Top v2_Top v1_0
100
AcDbLine
 10
19.09146694274032
 20
12.98832948772284
 30
0.0
 11
19.09146694274032
 21
5.774812283746577
 31
0.0
  0
LINE
  5
160
330
70
100
AcDbEntity
  8
Top v2_Top v1_0
100
AcDbLine
 10
26.65
 20
42.99999999999999
 30
0.0
 11
1.549999999999997
 21
43.0
 31
0.0
  0
LINE
  5
161
330
70
100
AcDbEntity
  8
Top v2_Top v1_0
100
AcDbLine
 10
-18.92053391171026
 20
30.10347794424475
 30
0.0
 11
-19.06105221939611
 21
30.10347794424475
 31
0.0
  0
ARC
  5
162
330
70
100
AcDbEntity
  8
Top v2_Top v1_0
100
AcDbCircle
 10
7.377976342651395
 20
31.82011975394986
 30
0.0
 40
0.0500000000000024
210
0.0
220
0.0
230
-1.0
100
AcDbArc
 50
22.00000000000284
 51
103.7867892982134
  0
LINE
  5
163
330
70
100
AcDbEntity
  8
Top v2_Top v1_0
100
AcDbLine
 10
-5.300169576623916
 20
27.5
 30
0.0
 11
-9.200000669466867
 21
27.5
 31
0.0
  0
LINE
  5
164
330
70
100
AcDbEntity
  8
Top v2_Top v1_0
100
AcDbLine
 10
-9.200000669466867
 20
27.5
 30
0.0
 11
-9.200700712968568
 21
28.73880511584321
 31
0.0
  0
LINE
  5
165
330
70
100
AcDbEntity
  8
Top v2_Top v1_0
100
AcDbLine
 10
-6.124952870235539
 20
33.45325473814444
 30
0.0
 11
-5.190611721810286
 21
33.0757564103037
 31
0.0
  0
LINE
  5
166
330
70
100
AcDbEntity
  8
Top v2_Top v1_0
100
AcDbLine
 10
-18.53444935513067
 20
31.10347794424475
 30
0.0
 11
-18.1251723928504
 21
30.10347794424475
 31
0.0
  0
LINE
  5
167
330
70
100
AcDbEntity
  8
Top v2_Top v1_0
100
AcDbLine
 10
-18.27592255306768
 20
30.10347794424475
 30
0.0
 11
-18.39256645870733
 21
30.40634297262609
 31
0.0
  0
SPLINE
  5
168
330
70
100
AcDbEntity
  8
Top v2_Top v1_0
100
AcDbSpline
210
0.0
220
0.0
230
1.0
 70
     8
 71
     3
 72
     9
 73
     5
 74
     0
 42
0.000000001
 43
0.0000000001
 40
0.0
 40
0.0
 40
0.0
 40
0.0
 40
0.0740133454434653
 40
0.1621030521746354
 40
0.1621030521746354
 40
0.1621030521746354
 40
0.1621030521746354
 10
-18.56991984081793
 20
31.6805584324497
 30
0.0
 10
-18.59417714685332
 20
31.67579299861111
 30
0.0
 10
-18.64730517832265
 20
31.66535580832408
 30
0.0
 10
-18.70146875300219
 20
31.66459871798118
 30
0.0
 10
-18.73090221119452
 20
31.66418730150641
 30
0.0
  0
LINE
  5
169
330
70
100
AcDbEntity
  8
Top v2_Top v1_0
100
AcDbLine
 10
-10.41666392359104
 20
32.44795714994229
 30
0.0
 11
-7.631666366736052
 21
31.32568826862276
 31
0.0
  0
LINE
  5
16A
330
70
100
AcDbEntity
  8
Top v2_Top v1_0
100
AcDbLine
 10
-18.01944257450628
 20
30.10347794424475
 30
0.0
 11
-18.01944257450628
 21
31.10347794424475
 31
0.0
  0
SPLINE
  5
16B
330
70
100
AcDbEntity
  8
Top v2_Top v1_0
100
AcDbSpline
210
0.0
220
0.0
230
1.0
 70
     8
 71
     3
 72
     9
 73
     5
 74
     0
 42
0.000000001
 43
0.0000000001
 40
0.0
 40
0.0
 40
0.0
 40
0.0
 40
0.1034568247826782
 40
0.1870116111264911
 40
0.1870116111264911
 40
0.1870116111264911
 40
0.1870116111264911
 10
-18.7370412511878
 20
32.6641873015064
 30
0.0
 10
-18.70230769387738
 20
32.66355002978539
 30
0.0
 10
-18.63952229014571
 20
32.66239807860651
 30
0.0
 10
-18.58009866763527
 20
32.64241831129695
 30
0.0
 10
-18.55354882908392
 20
32.63349156509817
 30
0.0
  0
LINE
  5
16C
330
70
100
AcDbEntity
  8
Top v2_Top v1_0
100
AcDbLine
 10
-9.200700712968568
 20
28.73880511584321
 30
0.0
 11
-9.200700808768512
 21
28.7389746445401
 31
0.0
  0
LINE
  5
16D
330
70
100
AcDbEntity
  8
Top v2_Top v1_0
100
AcDbLine
 10
-12.7263789527126
 20
33.38394880073908
 30
0.0
 11
-12.16446906258874
 21
34.77472458258927
 31
0.0
  0
SPLINE
  5
16E
330
70
100
AcDbEntity
  8
Top v2_Top v1_0
100
AcDbSpline
210
0.0
220
0.0
230
1.0
 70
     8
 71
     3
 72
     9
 73
     5
 74
     0
 42
0.000000001
 43
0.0000000001
 40
0.0
 40
0.0
 40
0.0
 40
0.0
 40
0.1028625947216444
 40
0.2097165902012628
 40
0.2097165902012628
 40
0.2097165902012628
 40
0.2097165902012628
 10
-17.35027481747198
 20
31.01752971540868
 30
0.0
 10
-17.32545862726501
 20
30.99336380738928
 30
0.0
 10
-17.27486329855418
 20
30.94409427610179
 30
0.0
 10
-17.24664457625404
 20
30.87931943908848
 30
0.0
 10
-17.23226668072271
 20
30.84631561170996
 30
0.0
  0
LINE
  5
16F
330
70
100
AcDbEntity
  8
Top v2_Top v1_0
100
AcDbLine
 10
-17.65859677029181
 20
30.10347794424474
 30
0.0
 11
-18.01944257450628
 21
30.10347794424475
 31
0.0
  0
SPLINE
  5
170
330
70
100
AcDbEntity
  8
Top v2_Top v1_0
100
AcDbSpline
210
0.0
220
0.0
230
1.0
 70
     8
 71
     3
 72
     9
 73
     5
 74
     0
 42
0.000000001
 43
0.0000000001
 40
0.0
 40
0.0
 40
0.0
 40
0.0
 40
0.0708077664130387
 40
0.1388902757372755
 40
0.1388902757372755
 40
0.1388902757372755
 40
0.1388902757372755
 10
-18.44509054852057
 20
32.54003994594992
 30
0.0
 10
-18.43355250406696
 20
32.51909968825535
 30
0.0
 10
-18.41092049268162
 20
32.47802512380373
 30
0.0
 10
-18.40730108642498
 20
32.4312955373793
 30
0.0
 10
-18.40552689266729
 20
32.40838920008123
 30
0.0
  0
LINE
  5
171
330
70
100
AcDbEntity
  8
Top v2_Top v1_0
100
AcDbLine
 10
-18.67701412869024
 20
31.10347794424475
 30
0.0
 11
-18.53444935513067
 21
31.10347794424475
 31
0.0
  0
LINE
  5
172
330
70
100
AcDbEntity
  8
Top v2_Top v1_0
100
AcDbLine
 10
23.99986812092503
 20
12.91987727318162
 30
0.0
 11
25.10406155222973
 21
12.91987727318162
 31
0.0
  0
ARC
  5
173
330
70
100
AcDbEntity
  8
Top v2_Top v1_0
100
AcDbCircle
 10
5.300169576623916
 20
27.8
 30
0.0
 40
0.3000000000000003
210
0.0
220
0.0
230
-1.0
100
AcDbArc
 50
179.9676224021529
 51
270.0
  0
SPLINE
  5
174
330
70
100
AcDbEntity
  8
Top v2_Top v1_0
100
AcDbSpline
210
0.0
220
0.0
230
1.0
 70
     8
 71
     3
 72
     9
 73
     5
 74
     0
 42
0.000000001
 43
0.0000000001
 40
0.0
 40
0.0
 40
0.0
 40
0.0
 40
0.1264242037478505
 40
0.2614324260551603
 40
0.2614324260551603
 40
0.2614324260551603
 40
0.2614324260551603
 10
-19.27387620640326
 20
31.04413269888342
 30
0.0
 10
-19.24215535941846
 20
31.01536517297692
 30
0.0
 10
-19.17655986632522
 20
30.95587684822272
 30
0.0
 10
-19.14672082789883
 20
30.87238096360758
 30
0.0
 10
-19.13131143284369
 20
30.82926224600256
 30
0.0
  0
LINE
  5
175
330
70
100
AcDbEntity
  8
Top v2_Top v1_0
100
AcDbLine
 10
-14.85777832699347
 20
31.10347794424475
 30
0.0
 11
-14.66064287853766
 21
30.80197714697302
 31
0.0
  0
ARC
  5
176
330
70
100
AcDbEntity
  8
Top v2_Top v1_0
100
AcDbCircle
 10
28.7
 20
40.3
 30
0.0
 40
0.2999999999999971
100
AcDbArc
 50
270.0
 51
0.0
  0
SPLINE
  5
177
330
70
100
AcDbEntity
  8
Top v2_Top v1_0
100
AcDbSpline
210
0.0
220
0.0
230
1.0
 70
     8
 71
     3
 72
     9
 73
     5
 74
     0
 42
0.000000001
 43
0.0000000001
 40
0.0
 40
0.0
 40
0.0
 40
0.0
 40
0.0835092730916764
 40
0.1760963209511571
 40
0.1760963209511571
 40
0.1760963209511571
 40
0.1760963209511571
 10
-19.36255289745855
 20
30.95750247370184
 30
0.0
 10
-19.38681366660569
 20
30.97201562191232
 30
0.0
 10
-19.43797244253666
 20
31.0026195525977
 30
0.0
 10
-19.49762720692913
 20
31.00568566063344
 30
0.0
 10
-19.52899219227362
 20
31.00729774366796
 30
0.0
  0
LINE
  5
178
330
70
100
AcDbEntity
  8
Top v2_Top v1_0
100
AcDbLine
 10
-9.200700808768512
 20
28.7389746445401
 30
0.0
 11
-10.70070056926867
 21
28.73812700105569
 31
0.0
  0
LINE
  5
179
330
70
100
AcDbEntity
  8
Top v2_Top v1_0
100
AcDbLine
 10
-19.06105221939611
 20
30.10347794424475
 30
0.0
 11
-18.67701412869024
 21
31.10347794424475
 31
0.0
  0
LINE
  5
17A
330
70
100
AcDbEntity
  8
Top v2_Top v1_0
100
AcDbLine
 10
-27.31238197802478
 20
39.27707655307614
 30
0.0
 11
-23.54014183286961
 21
37.75299260428524
 31
0.0
  0
SPLINE
  5
17B
330
70
100
AcDbEntity
  8
Top v2_Top v1_0
100
AcDbSpline
210
0.0
220
0.0
230
1.0
 70
     8
 71
     3
 72
     9
 73
     5
 74
     0
 42
0.000000001
 43
0.0000000001
 40
0.0
 40
0.0
 40
0.0
 40
0.0
 40
0.1245805344333717
 40
0.2523609742290423
 40
0.2523609742290423
 40
0.2523609742290423
 40
0.2523609742290423
 10
-19.76910139751959
 20
31.05982159506261
 30
0.0
 10
-19.73108402849946
 20
31.07752772248289
 30
0.0
 10
-19.65407279775477
 20
31.11339476692868
 30
0.0
 10
-19.56922537084937
 20
31.11813227964379
 30
0.0
 10
-19.52626373005438
 20
31.12053107153356
 30
0.0
  0
ARC
  5
17C
330
70
100
AcDbEntity
  8
Top v2_Top v1_0
100
AcDbCircle
 10
27.20000000000001
 20
39.55523170944618
 30
0.0
 40
0.3000000000000007
210
0.0
220
0.0
230
-1.0
100
AcDbArc
 50
359.9999999999986
 51
112.000000000001
  0
LINE
  5
17D
330
70
100
AcDbEntity
  8
Top v2_Top v1_0
100
AcDbLine
 10
-19.11221183968115
 20
32.6641873015064
 30
0.0
 11
-18.7370412511878
 21
32.6641873015064
 31
0.0
  0
LINE
  5
17E
330
70
100
AcDbEntity
  8
Top v2_Top v1_0
100
AcDbLine
 10
-19.62176169586706
 20
32.6641873015064
 30
0.0
 11
-19.21248473358679
 21
31.66418730150641
 31
0.0
  0
LINE
  5
17F
330
70
100
AcDbEntity
  8
Top v2_Top v1_0
100
AcDbLine
 10
-15.25614048672247
 20
30.10347794424475
 30
0.0
 11
-15.25614048672247
 21
30.94044922720373
 31
0.0
  0
SPLINE
  5
180
330
70
100
AcDbEntity
  8
Top v2_Top v1_0
100
AcDbSpline
210
0.0
220
0.0
230
1.0
 70
     8
 71
     3
 72
     9
 73
     5
 74
     0
 42
0.000000001
 43
0.0000000001
 40
0.0
 40
0.0
 40
0.0
 40
0.0
 40
0.0889859665988271
 40
0.177932778266378
 40
0.177932778266378
 40
0.177932778266378
 40
0.177932778266378
 10
-19.70907403660345
 20
30.24672483335912
 30
0.0
 10
-19.68238913252817
 20
30.23299706927363
 30
0.0
 10
-19.62903106606707
 20
30.20554758148946
 30
0.0
 10
-19.5691554060599
 20
30.20162084339949
 30
0.0
 10
-19.53922416401434
 20
30.19965790640295
 30
0.0
  0
LINE
  5
181
330
70
100
AcDbEntity
  8
Top v2_Top v1_0
100
AcDbLine
 10
-16.28479029369879
 20
30.98546980749548
 30
0.0
 11
-16.87551333141852
 21
30.98546980749548
 31
0.0
  0
SPLINE
  5
182
330
70
100
AcDbEntity
  8
Top v2_Top v1_0
100
AcDbSpline
210
0.0
220
0.0
230
1.0
 70
     8
 71
     3
 72
     9
 73
     5
 74
     0
 42
0.000000001
 43
0.0000000001
 40
0.0
 40
0.0
 40
0.0
 40
0.0
 40
0.0628488340012242
 40
0.1268967905251447
 40
0.1268967905251447
 40
0.1268967905251447
 40
0.1268967905251447
 10
-18.40552689266729
 20
32.40838920008123
 30
0.0
 10
-18.40703037912675
 20
32.3872410572679
 30
0.0
 10
-18.41006603777236
 20
32.344541276258
 30
0.0
 10
-18.43016902508006
 20
32.30673453913448
 30
0.0
 10
-18.44031550121832
 20
32.28765254150808
 30
0.0
  0
SPLINE
  5
183
330
70
100
AcDbEntity
  8
Top v2_Top v1_0
100
AcDbSpline
210
0.0
220
0.0
230
1.0
 70
     8
 71
     3
 72
     9
 73
     5
 74
     0
 42
0.000000001
 43
0.0000000001
 40
0.0
 40
0.0
 40
0.0
 40
0.0
 40
0.0615624664016935
 40
0.1298368262570783
 40
0.1298368262570783
 40
0.1298368262570783
 40
0.1298368262570783
 10
-17.37892414761114
 20
30.17032646070898
 30
0.0
 10
-17.39672673689186
 20
30.15993701356523
 30
0.0
 10
-17.43427285592296
 20
30.13802540211503
 30
0.0
 10
-17.47623226732256
 20
30.12656008102559
 30
0.0
 10
-17.49829651547003
 20
30.12053107153357
 30
0.0
  0
LINE
  5
184
330
70
100
AcDbEntity
  8
Top v2_Top v1_0
100
AcDbLine
 10
-19.36323501301336
 20
31.66418730150641
 30
0.0
 11
-19.4798790378623
 21
31.96705221067846
 31
0.0
  0
LINE
  5
185
330
70
100
AcDbEntity
  8
Top v2_Top v1_0
100
AcDbLine
 10
-15.54672743511725
 20
30.10347794424475
 30
0.0
 11
-15.66609980297613
 21
30.10347794424475
 31
0.0
  0
LINE
  5
186
330
70
100
AcDbEntity
  8
Top v2_Top v1_0
100
AcDbLine
 10
-19.24659110737372
 20
30.4540917767185
 30
0.0
 11
-19.11425830555487
 21
30.42066763769567
 31
0.0
  0
LINE
  5
187
330
70
100
AcDbEntity
  8
Top v2_Top v1_0
100
AcDbLine
 10
-23.3
 20
27.5
 30
0.0
 11
-27.20000000000001
 21
27.5
 31
0.0
  0
SPLINE
  5
188
330
70
100
AcDbEntity
  8
Top v2_Top v1_0
100
AcDbSpline
210
0.0
220
0.0
230
1.0
 70
     8
 71
     3
 72
     9
 73
     5
 74
     0
 42
0.000000001
 43
0.0000000001
 40
0.0
 40
0.0
 40
0.0
 40
0.0
 40
0.1039042465870304
 40
0.2020941490617801
 40
0.2020941490617801
 40
0.2020941490617801
 40
0.2020941490617801
 10
-19.53922416401434
 20
30.19965790640295
 30
0.0
 10
-19.50396969992193
 20
30.20201412232154
 30
0.0
 10
-19.43539963512273
 20
30.20659697111469
 30
0.0
 10
-19.37856869748141
 20
30.24508034498387
 30
0.0
 10
-19.35095669460821
 20
30.26377796064795
 30
0.0
  0
LINE
  5
189
330
70
100
AcDbEntity
  8
Top v2_Top v1_0
100
AcDbLine
 10
-15.95532204342413
 20
30.10347794424475
 30
0.0
 11
-16.08287979794073
 21
30.10347794424475
 31
0.0
  0
LINE
  5
18A
330
70
100
AcDbEntity
  8
Top v2_Top v1_0
100
AcDbLine
 10
-20.86118871105242
 20
30.10347794424475
 30
0.0
 11
-21.0017071314283
 21
30.10347794424475
 31
0.0
  0
LINE
  5
18B
330
70
100
AcDbEntity
  8
Top v2_Top v1_0
100
AcDbLine
 10
-20.61766894293356
 20
31.10347794424475
 30
0.0
 11
-20.47510410976935
 21
31.10347794424475
 31
0.0
  0
SPLINE
  5
18C
330
70
100
AcDbEntity
  8
Top v2_Top v1_0
100
AcDbSpline
210
0.0
220
0.0
230
1.0
 70
     8
 71
     3
 72
     9
 73
     5
 74
     0
 42
0.000000001
 43
0.0000000001
 40
0.0
 40
0.0
 40
0.0
 40
0.0
 40
0.1067975697537906
 40
0.2032906830571991
 40
0.2032906830571991
 40
0.2032906830571991
 40
0.2032906830571991
 10
-19.52899219227362
 20
31.00729774366796
 30
0.0
 10
-19.56512003095449
 20
31.00549975393898
 30
0.0
 10
-19.63388988236351
 20
31.00207725508459
 30
0.0
 10
-19.69366295213789
 20
30.96814945775689
 30
0.0
 10
-19.7220345897727
 20
30.95204543005407
 30
0.0
  0
SPLINE
  5
18D
330
70
100
AcDbEntity
  8
Top v2_Top v1_0
100
AcDbSpline
210
0.0
220
0.0
230
1.0
 70
     8
 71
     3
 72
     9
 73
     5
 74
     0
 42
0.000000001
 43
0.0000000001
 40
0.0
 40
0.0
 40
0.0
 40
0.0
 40
0.1025648301800628
 40
0.2201565455163869
 40
0.2201565455163869
 40
0.2201565455163869
 40
0.2201565455163869
 10
-19.35095669460821
 20
30.26377796064795
 30
0.0
 10
-19.32708534679386
 20
30.2890123952591
 30
0.0
 10
-19.27584523395593
 20
30.34317838902419
 30
0.0
 10
-19.25677633502458
 20
30.41547575104361
 30
0.0
 10
-19.24659110737372
 20
30.4540917767185
 30
0.0
  0
ARC
  5
18E
330
70
100
AcDbEntity
  8
Top v2_Top v1_0
100
AcDbCircle
 10
27.20000000000001
 20
27.8
 30
0.0
 40
0.2999999999999971
210
0.0
220
0.0
230
-1.0
100
AcDbArc
 50
270.0
 51
0.0000000000006785
  0
LINE
  5
18F
330
70
100
AcDbEntity
  8
Top v2_Top v1_0
100
AcDbLine
 10
-20.21043838692236
 20
32.6641873015064
 30
0.0
 11
-20.21043838692236
 21
32.54617910515249
 31
0.0
  0
LINE
  5
190
330
70
100
AcDbEntity
  8
Top v2_Top v1_0
100
AcDbLine
 10
-20.21657748652029
 20
30.10347794424475
 30
0.0
 11
-20.33322145176459
 21
30.40634297262609
 31
0.0
  0
SPLINE
  5
191
330
70
100
AcDbEntity
  8
Top v2_Top v1_0
100
AcDbSpline
210
0.0
220
0.0
230
1.0
 70
     8
 71
     3
 72
     9
 73
     5
 74
     0
 42
0.000000001
 43
0.0000000001
 40
0.0
 40
0.0
 40
0.0
 40
0.0
 40
0.1028932264063302
 40
0.1788613529844539
 40
0.1788613529844539
 40
0.1788613529844539
 40
0.1788613529844539
 10
-17.67496778202582
 20
31.10347794424475
 30
0.0
 10
-17.64059764681311
 20
31.1033360145735
 30
0.0
 10
-17.58085135348448
 20
31.10308929538786
 30
0.0
 10
-17.52194969787348
 20
31.09330779475734
 30
0.0
 10
-17.49693228436041
 20
31.08915327917517
 30
0.0
  0
LINE
  5
192
330
70
100
AcDbEntity
  8
Top v2_Top v1_0
100
AcDbLine
 10
-20.06582714748907
 20
30.10347794424475
 30
0.0
 11
-20.21657748652029
 21
30.10347794424475
 31
0.0
  0
LINE
  5
193
330
70
100
AcDbEntity
  8
Top v2_Top v1_0
100
AcDbLine
 10
-21.79999999999999
 20
28.75310602172431
 30
0.0
 11
-23.3
 21
28.75310602172431
 31
0.0
  0
LINE
  5
194
330
70
100
AcDbEntity
  8
Top v2_Top v1_0
100
AcDbLine
 10
-16.08287979794073
 20
31.10347794424475
 30
0.0
 11
-15.88369871807623
 21
31.10347794424475
 31
0.0
  0
LINE
  5
195
330
70
100
AcDbEntity
  8
Top v2_Top v1_0
100
AcDbLine
 10
-16.08287979794073
 20
30.10347794424475
 30
0.0
 11
-16.08287979794073
 21
31.10347794424475
 31
0.0
  0
LINE
  5
196
330
70
100
AcDbEntity
  8
Top v2_Top v1_0
100
AcDbLine
 10
-20.28342612219382
 20
32.23649292122305
 30
0.0
 11
-20.28342612219382
 21
32.11848472486913
 31
0.0
  0
SPLINE
  5
197
330
70
100
AcDbEntity
  8
Top v2_Top v1_0
100
AcDbSpline
210
0.0
220
0.0
230
1.0
 70
     8
 71
     3
 72
     9
 73
     5
 74
     0
 42
0.000000001
 43
0.0000000001
 40
0.0
 40
0.0
 40
0.0
 40
0.0
 40
0.0971960837598838
 40
0.1948855095938167
 40
0.1948855095938167
 40
0.1948855095938167
 40
0.1948855095938167
 10
-19.83049298954535
 20
30.80334137808264
 30
0.0
 10
-19.83964482893589
 20
30.77212098334686
 30
0.0
 10
-19.85799496007647
 20
30.70952172726127
 30
0.0
 10
-19.86057666281461
 20
30.64433779954532
 30
0.0
 10
-19.86187078190375
 20
30.61166333090246
 30
0.0
  0
LINE
  5
198
330
70
100
AcDbEntity
  8
Top v2_Top v1_0
100
AcDbLine
 10
-14.25614096355963
 20
31.10347794424475
 30
0.0
 11
-14.10197998714972
 21
31.10347794424475
 31
0.0
  0
SPLINE
  5
199
330
70
100
AcDbEntity
  8
Top v2_Top v1_0
100
AcDbSpline
210
0.0
220
0.0
230
1.0
 70
     8
 71
     3
 72
     9
 73
     5
 74
     0
 42
0.000000001
 43
0.0000000001
 40
0.0
 40
0.0
 40
0.0
 40
0.0
 40
0.1034933462960655
 40
0.1905490266557699
 40
0.1905490266557699
 40
0.1905490266557699
 40
0.1905490266557699
 10
-19.26159800720739
 20
30.79856656919897
 30
0.0
 10
-19.27339193493995
 20
30.83158268673808
 30
0.0
 10
-19.29510658163288
 20
30.89237103001024
 30
0.0
 10
-19.34140201361698
 20
30.93707752412393
 30
0.0
 10
-19.36255289745855
 20
30.95750247370184
 30
0.0
  0
SPLINE
  5
19A
330
70
100
AcDbEntity
  8
Top v2_Top v1_0
100
AcDbSpline
210
0.0
220
0.0
230
1.0
 70
     8
 71
     3
 72
     9
 73
     5
 74
     0
 42
0.000000001
 43
0.0000000001
 40
0.0
 40
0.0
 40
0.0
 40
0.0
 40
0.0956494657358331
 40
0.1858408818615495
 40
0.1858408818615495
 40
0.1858408818615495
 40
0.1858408818615495
 10
-19.82503594589758
 20
30.38860749136389
 30
0.0
 10
-19.8112291644014
 20
30.35923961760871
 30
0.0
 10
-19.78440345838015
 20
30.30217969035168
 30
0.0
 10
-19.73368734191415
 20
30.26484427850985
 30
0.0
 10
-19.70907403660345
 20
30.24672483335912
 30
0.0
  0
LINE
  5
19B
330
70
100
AcDbEntity
  8
Top v2_Top v1_0
100
AcDbLine
 10
-20.00784625244666
 20
31.66418730150641
 30
0.0
 11
-20.1483646793418
 21
31.66418730150641
 31
0.0
  0
SPLINE
  5
19C
330
70
100
AcDbEntity
  8
Top v2_Top v1_0
100
AcDbSpline
210
0.0
220
0.0
230
1.0
 70
     8
 71
     3
 72
     9
 73
     5
 74
     0
 42
0.000000001
 43
0.0000000001
 40
0.0
 40
0.0
 40
0.0
 40
0.0
 40
0.1255266216491435
 40
0.2479378552214025
 40
0.2479378552214025
 40
0.2479378552214025
 40
0.2479378552214025
 10
-19.9389512701087
 20
30.88315056692541
 30
0.0
 10
-19.91710253191142
 20
30.91954317370317
 30
0.0
 10
-19.87394730940357
 20
30.99142517571876
 30
0.0
 10
-19.80375604578815
 20
31.03721457288503
 30
0.0
 10
-19.76910139751959
 20
31.05982159506261
 30
0.0
  0
LINE
  5
19D
330
70
100
AcDbEntity
  8
Top v2_Top v1_0
100
AcDbLine
 10
-15.54604508114386
 20
30.40770720373571
 30
0.0
 11
-15.3066179914527
 21
31.10347794424475
 31
0.0
  0
LINE
  5
19E
330
70
100
AcDbEntity
  8
Top v2_Top v1_0
100
AcDbLine
 10
-19.4798790378623
 20
31.96705221067846
 30
0.0
 11
-19.89802362156439
 21
31.96705221067846
 31
0.0
  0
LINE
  5
19F
330
70
100
AcDbEntity
  8
Top v2_Top v1_0
100
AcDbLine
 10
-19.89802362156439
 20
31.96705221067846
 30
0.0
 11
-20.00784625244666
 21
31.66418730150641
 31
0.0
  0
SPLINE
  5
1A0
330
70
100
AcDbEntity
  8
Top v2_Top v1_0
100
AcDbSpline
210
0.0
220
0.0
230
1.0
 70
     8
 71
     3
 72
     9
 73
     5
 74
     0
 42
0.000000001
 43
0.0000000001
 40
0.0
 40
0.0
 40
0.0
 40
0.0
 40
0.0922490307307044
 40
0.1864385612716685
 40
0.1864385612716685
 40
0.1864385612716685
 40
0.1864385612716685
 10
-19.7220345897727
 20
30.95204543005407
 30
0.0
 10
-19.74587672841702
 20
30.93187723645725
 30
0.0
 10
-19.79406253580467
 20
30.89111660224945
 30
0.0
 10
-19.81826553464921
 20
30.83280210350039
 30
0.0
 10
-19.83049298954535
 20
30.80334137808264
 30
0.0
  0
SPLINE
  5
1A1
330
70
100
AcDbEntity
  8
Top v2_Top v1_0
100
AcDbSpline
210
0.0
220
0.0
230
1.0
 70
     8
 71
     3
 72
     9
 73
     5
 74
     0
 42
0.000000001
 43
0.0000000001
 40
0.0
 40
0.0
 40
0.0
 40
0.0
 40
0.0996549234631237
 40
0.1973781419427727
 40
0.1973781419427727
 40
0.1973781419427727
 40
0.1973781419427727
 10
-14.66064287853766
 20
30.80197714697302
 30
0.0
 10
-14.64284380902298
 20
30.77392327593512
 30
0.0
 10
-14.60759068607599
 20
30.71835932839155
 30
0.0
 10
-14.57509487974863
 20
30.66113936888012
 30
0.0
 10
-14.55900599194098
 20
30.63280938993872
 30
0.0
  0
SPLINE
  5
1A2
330
70
100
AcDbEntity
  8
Top v2_Top v1_0
100
AcDbSpline
210
0.0
220
0.0
230
1.0
 70
     8
 71
     3
 72
     9
 73
     5
 74
     0
 42
0.000000001
 43
0.0000000001
 40
0.0
 40
0.0
 40
0.0
 40
0.0
 40
0.0909762333624835
 40
0.1555349376685799
 40
0.1555349376685799
 40
0.1555349376685799
 40
0.1555349376685799
 10
-15.64700009060431
 20
30.39542888533056
 30
0.0
 10
-15.63747499361525
 20
30.36663753796725
 30
0.0
 10
-15.62119068163922
 20
30.31741522734789
 30
0.0
 10
-15.60568646486396
 20
30.26794204345754
 30
0.0
 10
-15.59925104809332
 20
30.24740694891394
 30
0.0
  0
SPLINE
  5
1A3
330
70
100
AcDbEntity
  8
Top v2_Top v1_0
100
AcDbSpline
210
0.0
220
0.0
230
1.0
 70
     8
 71
     3
 72
     9
 73
     5
 74
     0
 42
0.000000001
 43
0.0000000001
 40
0.0
 40
0.0
 40
0.0
 40
0.0
 40
0.0570918122385099
 40
0.1211613673138473
 40
0.1211613673138473
 40
0.1211613673138473
 40
0.1211613673138473
 10
-18.46009732914495
 20
31.73035370241583
 30
0.0
 10
-18.47615913172676
 20
31.71995159313944
 30
0.0
 10
-18.51024580520992
 20
31.69787603215337
 30
0.0
 10
-18.54927917854815
 20
31.68654841994032
 30
0.0
 10
-18.56991984081793
 20
31.6805584324497
 30
0.0
  0
LINE
  5
1A4
330
70
100
AcDbEntity
  8
Top v2_Top v1_0
100
AcDbLine
 10
-23.54014183286961
 20
37.75299260428524
 30
0.0
 11
-22.97823194274576
 21
39.14376838613542
 31
0.0
  0
LINE
  5
1A5
330
70
100
AcDbEntity
  8
Top v2_Top v1_0
100
AcDbLine
 10
-19.76432646942664
 20
32.6641873015064
 30
0.0
 11
-19.62176169586706
 21
32.6641873015064
 31
0.0
  0
LINE
  5
1A6
330
70
100
AcDbEntity
  8
Top v2_Top v1_0
100
AcDbLine
 10
-20.66027230632879
 20
38.20725190259564
 30
0.0
 11
-21.22218219645265
 21
36.81647612074546
 31
0.0
  0
LINE
  5
1A7
330
70
100
AcDbEntity
  8
Top v2_Top v1_0
100
AcDbLine
 10
-14.10197998714972
 20
31.10347794424475
 30
0.0
 11
-14.50102497768926
 21
30.5270795715946
 31
0.0
  0
SPLINE
  5
1A8
330
70
100
AcDbEntity
  8
Top v2_Top v1_0
100
AcDbSpline
210
0.0
220
0.0
230
1.0
 70
     8
 71
     3
 72
     9
 73
     5
 74
     0
 42
0.000000001
 43
0.0000000001
 40
0.0
 40
0.0
 40
0.0
 40
0.0
 40
0.1198969961457693
 40
0.2270331067942321
 40
0.2270331067942321
 40
0.2270331067942321
 40
0.2270331067942321
 10
-19.86187078190375
 20
30.61166333090246
 30
0.0
 10
-19.8607119012897
 20
30.5714900111318
 30
0.0
 10
-19.85851748212435
 20
30.49541910117604
 30
0.0
 10
-19.83577027264773
 20
30.42285175998608
 30
0.0
 10
-19.82503594589758
 20
30.38860749136389
 30
0.0
  0
SPLINE
  5
1A9
330
70
100
AcDbEntity
  8
Top v2_Top v1_0
100
AcDbSpline
210
0.0
220
0.0
230
1.0
 70
     8
 71
     3
 72
     9
 73
     5
 74
     0
 42
0.000000001
 43
0.0000000001
 40
0.0
 40
0.0
 40
0.0
 40
0.0
 40
0.1202413817561858
 40
0.2482245600635334
 40
0.2482245600635334
 40
0.2482245600635334
 40
0.2482245600635334
 10
-19.79161168766546
 20
30.15190910231054
 30
0.0
 10
-19.82352984281053
 20
30.17702313398392
 30
0.0
 10
-19.88942121816902
 20
30.22886817578648
 30
0.0
 10
-19.92660230575011
 20
30.30411051149108
 30
0.0
 10
-19.94577266407538
 20
30.34290503393591
 30
0.0
  0
SPLINE
  5
1AA
330
70
100
AcDbEntity
  8
Top v2_Top v1_0
100
AcDbSpline
210
0.0
220
0.0
230
1.0
 70
     8
 71
     3
 72
     9
 73
     5
 74
     0
 42
0.000000001
 43
0.0000000001
 40
0.0
 40
0.0
 40
0.0
 40
0.0
 40
0.0759480797896663
 40
0.161491209076524
 40
0.161491209076524
 40
0.161491209076524
 40
0.161491209076524
 10
-17.49829651547003
 20
30.12053107153357
 30
0.0
 10
-17.52317337465439
 20
30.11556203547939
 30
0.0
 10
-17.57606995977985
 20
30.10499619046321
 30
0.0
 10
-17.63001936009035
 20
30.10400368302833
 30
0.0
 10
-17.65859677029181
 20
30.10347794424475
 30
0.0
  0
SPLINE
  5
1AB
330
70
100
AcDbEntity
  8
Top v2_Top v1_0
100
AcDbSpline
210
0.0
220
0.0
230
1.0
 70
     8
 71
     3
 72
     9
 73
     5
 74
     0
 42
0.000000001
 43
0.0000000001
 40
0.0
 40
0.0
 40
0.0
 40
0.0
 40
0.1475686028635899
 40
0.2741305022196112
 40
0.2741305022196112
 40
0.2741305022196112
 40
0.2741305022196112
 10
-19.52831007671881
 20
30.08642481695593
 30
0.0
 10
-19.57815178230257
 20
30.0882128381935
 30
0.0
 10
-19.67074012100079
 20
30.09153435205434
 30
0.0
 10
-19.75343343673017
 20
30.13283925462808
 30
0.0
 10
-19.79161168766546
 20
30.15190910231054
 30
0.0
  0
LINE
  5
1AC
330
70
100
AcDbEntity
  8
Top v2_Top v1_0
100
AcDbLine
 10
-20.47510410976935
 20
31.10347794424475
 30
0.0
 11
-20.06582714748907
 21
30.10347794424475
 31
0.0
  0
SPLINE
  5
1AD
330
70
100
AcDbEntity
  8
Top v2_Top v1_0
100
AcDbSpline
210
0.0
220
0.0
230
1.0
 70
     8
 71
     3
 72
     9
 73
     5
 74
     0
 42
0.000000001
 43
0.0000000001
 40
0.0
 40
0.0
 40
0.0
 40
0.0
 40
0.1468969605478654
 40
0.2805491789008985
 40
0.2805491789008985
 40
0.2805491789008985
 40
0.2805491789008985
 10
-19.99829651547003
 20
30.61098145376623
 30
0.0
 10
-19.99632545108919
 20
30.66036291010707
 30
0.0
 10
-19.99256104036522
 20
30.7546734184912
 30
0.0
 10
-19.9562497745746
 20
30.84169427052046
 30
0.0
 10
-19.9389512701087
 20
30.88315056692541
 30
0.0
  0
LINE
  5
1AE
330
70
100
AcDbEntity
  8
Top v2_Top v1_0
100
AcDbLine
 10
-15.88369871807623
 20
31.10347794424475
 30
0.0
 11
-15.64700009060431
 21
30.39542888533056
 31
0.0
  0
LINE
  5
1AF
330
70
100
AcDbEntity
  8
Top v2_Top v1_0
100
AcDbLine
 10
-16.2615978879981
 20
30.22148608099402
 30
0.0
 11
-16.2615978879981
 21
30.10347794424475
 31
0.0
  0
LINE
  5
1B0
330
70
100
AcDbEntity
  8
Top v2_Top v1_0
100
AcDbLine
 10
-15.95532204342413
 20
30.9547740114826
 30
0.0
 11
-15.95532204342413
 21
30.10347794424475
 31
0.0
  0
LINE
  5
1B1
330
70
100
AcDbEntity
  8
Top v2_Top v1_0
100
AcDbLine
 10
-17.00784613323736
 20
31.10347794424475
 30
0.0
 11
-16.28479029369879
 21
31.10347794424475
 31
0.0
  0
LINE
  5
1B2
330
70
100
AcDbEntity
  8
Top v2_Top v1_0
100
AcDbLine
 10
-15.66609980297613
 20
30.10347794424475
 30
0.0
 11
-15.95532204342413
 21
30.9547740114826
 31
0.0
  0
LINE
  5
1B3
330
70
100
AcDbEntity
  8
Top v2_Top v1_0
100
AcDbLine
 10
-17.00784613323736
 20
30.10347794424475
 30
0.0
 11
-17.00784613323736
 21
31.10347794424475
 31
0.0
  0
LINE
  5
1B4
330
70
100
AcDbEntity
  8
Top v2_Top v1_0
100
AcDbLine
 10
-16.87551333141852
 20
30.98546980749548
 30
0.0
 11
-16.87551333141852
 21
30.67919420134008
 31
0.0
  0
LINE
  5
1B5
330
70
100
AcDbEntity
  8
Top v2_Top v1_0
100
AcDbLine
 10
-27.5
 20
27.8
 30
0.0
 11
-27.5
 21
39.55523170944618
 31
0.0
  0
SPLINE
  5
1B6
330
70
100
AcDbEntity
  8
Top v2_Top v1_0
100
AcDbSpline
210
0.0
220
0.0
230
1.0
 70
     8
 71
     3
 72
     9
 73
     5
 74
     0
 42
0.000000001
 43
0.0000000001
 40
0.0
 40
0.0
 40
0.0
 40
0.0
 40
0.0672546174743478
 40
0.1406617426120043
 40
0.1406617426120043
 40
0.1406617426120043
 40
0.1406617426120043
 10
-18.44031550121832
 20
32.28765254150808
 30
0.0
 10
-18.45386437464449
 20
32.26946081514757
 30
0.0
 10
-18.48220158356969
 20
32.23141316835268
 30
0.0
 10
-18.52370422564181
 20
32.2083061731695
 30
0.0
 10
-18.54536320400763
 20
32.1962473286289
 30
0.0
  0
SPLINE
  5
1B7
330
70
100
AcDbEntity
  8
Top v2_Top v1_0
100
AcDbSpline
210
0.0
220
0.0
230
1.0
 70
     8
 71
     3
 72
     9
 73
     5
 74
     0
 42
0.000000001
 43
0.0000000001
 40
0.0
 40
0.0
 40
0.0
 40
0.0
 40
0.0708086204473841
 40
0.1689025885106047
 40
0.1689025885106047
 40
0.1689025885106047
 40
0.1689025885106047
 10
-15.59925104809332
 20
30.24740694891394
 30
0.0
 10
-15.59203240461731
 20
30.26987933035471
 30
0.0
 10
-15.57481349029686
 20
30.32348358604226
 30
0.0
 10
-15.5566145335926
 20
30.37676362539819
 30
0.0
 10
-15.54604508114386
 20
30.40770720373571
 30
0.0
  0
SPLINE
  5
1B8
330
70
100
AcDbEntity
  8
Top v2_Top v1_0
100
AcDbSpline
210
0.0
220
0.0
230
1.0
 70
     8
 71
     3
 72
     9
 73
     5
 74
     0
 42
0.000000001
 43
0.0000000001
 40
0.0
 40
0.0
 40
0.0
 40
0.0
 40
0.115078044419218
 40
0.2416590786812265
 40
0.2416590786812265
 40
0.2416590786812265
 40
0.2416590786812265
 10
-17.23226668072271
 20
30.84631561170996
 30
0.0
 10
-17.22073446964273
 20
30.8095342775811
 30
0.0
 10
-17.19651730885579
 20
30.73229501475641
 30
0.0
 10
-17.19401416940528
 20
30.65133941486873
 30
0.0
 10
-17.19270302486944
 20
30.60893486868323
 30
0.0
  0
SPLINE
  5
1B9
330
70
100
AcDbEntity
  8
Top v2_Top v1_0
100
AcDbSpline
210
0.0
220
0.0
230
1.0
 70
     8
 71
     3
 72
     9
 73
     5
 74
     0
 42
0.000000001
 43
0.0000000001
 40
0.0
 40
0.0
 40
0.0
 40
0.0
 40
0.1352954893188965
 40
0.2745587050865051
 40
0.2745587050865051
 40
0.2745587050865051
 40
0.2745587050865051
 10
-19.94577266407538
 20
30.34290503393591
 30
0.0
 10
-19.96109124918435
 20
30.3856176524639
 30
0.0
 10
-19.99217765799554
 20
30.47229549584904
 30
0.0
 10
-19.99623734043415
 20
30.56430956059659
 30
0.0
 10
-19.99829651547003
 20
30.61098145376623
 30
0.0
  0
LINE
  5
1BA
330
70
100
AcDbEntity
  8
Top v2_Top v1_0
100
AcDbLine
 10
-20.1483646793418
 20
31.66418730150641
 30
0.0
 11
-19.76432646942664
 21
32.6641873015064
 31
0.0
  0
LINE
  5
1BB
330
70
100
AcDbEntity
  8
Top v2_Top v1_0
100
AcDbLine
 10
-16.28479029369879
 20
31.10347794424475
 30
0.0
 11
-16.28479029369879
 21
30.98546980749548
 31
0.0
  0
LINE
  5
1BC
330
70
100
AcDbEntity
  8
Top v2_Top v1_0
100
AcDbLine
 10
-19.13131143284369
 20
30.82926224600256
 30
0.0
 11
-19.26159800720739
 21
30.79856656919897
 31
0.0
  0
SPLINE
  5
1BD
330
70
100
AcDbEntity
  8
Top v2_Top v1_0
100
AcDbSpline
210
0.0
220
0.0
230
1.0
 70
     8
 71
     3
 72
     9
 73
     5
 74
     0
 42
0.000000001
 43
0.0000000001
 40
0.0
 40
0.0
 40
0.0
 40
0.0
 40
0.0728300674617794
 40
0.1449508482230094
 40
0.1449508482230094
 40
0.1449508482230094
 40
0.1449508482230094
 10
-18.55354882908392
 20
32.63349156509817
 30
0.0
 10
-18.53166760228244
 20
32.6221465060304
 30
0.0
 10
-18.48811824834701
 20
32.59956687659541
 30
0.0
 10
-18.45938625045252
 20
32.55981742094544
 30
0.0
 10
-18.44509054852057
 20
32.54003994594992
 30
0.0
  0
SPLINE
  5
1BE
330
70
100
AcDbEntity
  8
Top v2_Top v1_0
100
AcDbSpline
210
0.0
220
0.0
230
1.0
 70
     8
 71
     3
 72
     9
 73
     5
 74
     0
 42
0.000000001
 43
0.0000000001
 40
0.0
 40
0.0
 40
0.0
 40
0.0
 40
0.0971263917330608
 40
0.2076847574555563
 40
0.2076847574555563
 40
0.2076847574555563
 40
0.2076847574555563
 10
-14.55900599194098
 20
30.63280938993872
 30
0.0
 10
-14.54258977680381
 20
30.66071853939116
 30
0.0
 10
-14.50748708639941
 20
30.72039649953563
 30
0.0
 10
-14.46988342924848
 20
30.77853262309543
 30
0.0
 10
-14.44986559582281
 20
30.8094806564945
 30
0.0
  0
LINE
  5
1BF
330
70
100
AcDbEntity
  8
Top v2_Top v1_0
100
AcDbLine
 10
-16.32230736446905
 20
30.56186818014563
 30
0.0
 11
-16.87551333141852
 21
30.56186818014563
 31
0.0
  0
LINE
  5
1C0
330
70
100
AcDbEntity
  8
Top v2_Top v1_0
100
AcDbLine
 10
-15.12858273220587
 20
31.10347794424475
 30
0.0
 11
-15.12858273220587
 21
30.10347794424475
 31
0.0
  0
LINE
  5
1C1
330
70
100
AcDbEntity
  8
Top v2_Top v1_0
100
AcDbLine
 10
-19.21248473358679
 20
31.66418730150641
 30
0.0
 11
-19.36323501301336
 21
31.66418730150641
 31
0.0
  0
LINE
  5
1C2
330
70
100
AcDbEntity
  8
Top v2_Top v1_0
100
AcDbLine
 10
-20.75273032618094
 20
32.23649292122305
 30
0.0
 11
-20.28342612219382
 21
32.23649292122305
 31
0.0
  0
LINE
  5
1C3
330
70
100
AcDbEntity
  8
Top v2_Top v1_0
100
AcDbLine
 10
-20.21043838692236
 20
32.54617910515249
 30
0.0
 11
-20.75273032618094
 21
32.54617910515249
 31
0.0
  0
LINE
  5
1C4
330
70
100
AcDbEntity
  8
Top v2_Top v1_0
100
AcDbLine
 10
-20.75273032618094
 20
32.54617910515249
 30
0.0
 11
-20.75273032618094
 21
32.23649292122305
 31
0.0
  0
LINE
  5
1C5
330
70
100
AcDbEntity
  8
Top v2_Top v1_0
100
AcDbLine
 10
-27.08761802197523
 20
39.83338686581621
 30
0.0
 11
-27.31238197802478
 21
39.27707655307614
 31
0.0
  0
LINE
  5
1C6
330
70
100
AcDbEntity
  8
Top v2_Top v1_0
100
AcDbLine
 10
-15.3066179914527
 20
31.10347794424475
 30
0.0
 11
-15.12858273220587
 21
31.10347794424475
 31
0.0
  0
LINE
  5
1C7
330
70
100
AcDbEntity
  8
Top v2_Top v1_0
100
AcDbLine
 10
-16.32230736446905
 20
30.67919420134008
 30
0.0
 11
-16.32230736446905
 21
30.56186818014563
 31
0.0
  0
SPLINE
  5
1C8
330
70
100
AcDbEntity
  8
Top v2_Top v1_0
100
AcDbSpline
210
0.0
220
0.0
230
1.0
 70
     8
 71
     3
 72
     9
 73
     5
 74
     0
 42
0.000000001
 43
0.0000000001
 40
0.0
 40
0.0
 40
0.0
 40
0.0
 40
0.1358738229646537
 40
0.2815415514745719
 40
0.2815415514745719
 40
0.2815415514745719
 40
0.2815415514745719
 10
-19.26432646942664
 20
30.1716906918186
 30
0.0
 10
-19.30311932779684
 20
30.14682981685752
 30
0.0
 10
-19.38350126813955
 20
30.0953160730411
 30
0.0
 10
-19.47893387820849
 20
30.08945651392088
 30
0.0
 10
-19.52831007671881
 20
30.08642481695593
 30
0.0
  0
LINE
  5
1C9
330
70
100
AcDbEntity
  8
Top v2_Top v1_0
100
AcDbLine
 10
-16.2615978879981
 20
30.10347794424475
 30
0.0
 11
-17.00784613323736
 21
30.10347794424475
 31
0.0
  0
LINE
  5
1CA
330
70
100
AcDbEntity
  8
Top v2_Top v1_0
100
AcDbLine
 10
-20.88506320250559
 20
31.66418730150641
 30
0.0
 11
-20.88506320250559
 21
32.6641873015064
 31
0.0
  0
LINE
  5
1CB
330
70
100
AcDbEntity
  8
Top v2_Top v1_0
100
AcDbLine
 10
-19.11221183968115
 20
31.66418730150641
 30
0.0
 11
-19.11221183968115
 21
32.6641873015064
 31
0.0
  0
LINE
  5
1CC
330
70
100
AcDbEntity
  8
Top v2_Top v1_0
100
AcDbLine
 10
-21.8
 20
27.5
 30
0.0
 11
-21.79999999999999
 21
28.75310602172431
 31
0.0
  0
LINE
  5
1CD
330
70
100
AcDbEntity
  8
Top v2_Top v1_0
100
AcDbLine
 10
-21.0017071314283
 20
30.10347794424475
 30
0.0
 11
-20.61766894293356
 21
31.10347794424475
 31
0.0
  0
LINE
  5
1CE
330
70
100
AcDbEntity
  8
Top v2_Top v1_0
100
AcDbLine
 10
-20.75273032618094
 20
32.11848472486913
 30
0.0
 11
-20.75273032618094
 21
31.66418730150641
 31
0.0
  0
LINE
  5
1CF
330
70
100
AcDbEntity
  8
Top v2_Top v1_0
100
AcDbLine
 10
-15.12858273220587
 20
30.10347794424475
 30
0.0
 11
-15.25614048672247
 21
30.10347794424475
 31
0.0
  0
LINE
  5
1D0
330
70
100
AcDbEntity
  8
Top v2_Top v1_0
100
AcDbLine
 10
-16.87551333141852
 20
30.22148608099402
 30
0.0
 11
-16.2615978879981
 21
30.22148608099402
 31
0.0
  0
LINE
  5
1D1
330
70
100
AcDbEntity
  8
Top v2_Top v1_0
100
AcDbLine
 10
-20.33322145176459
 20
30.40634297262609
 30
0.0
 11
-20.751366065269
 21
30.40634297262609
 31
0.0
  0
LINE
  5
1D2
330
70
100
AcDbEntity
  8
Top v2_Top v1_0
100
AcDbLine
 10
-14.63335777950812
 20
30.10347794424475
 30
0.0
 11
-14.63335777950812
 21
30.5270795715946
 31
0.0
  0
LINE
  5
1D3
330
70
100
AcDbEntity
  8
Top v2_Top v1_0
100
AcDbLine
 10
-14.63335777950812
 20
30.5270795715946
 30
0.0
 11
-15.01876045895148
 21
31.10347794424475
 31
0.0
  0
LINE
  5
1D4
330
70
100
AcDbEntity
  8
Top v2_Top v1_0
100
AcDbLine
 10
-20.88506320250559
 20
32.6641873015064
 30
0.0
 11
-20.21043838692236
 21
32.6641873015064
 31
0.0
  0
LINE
  5
1D5
330
70
100
AcDbEntity
  8
Top v2_Top v1_0
100
AcDbLine
 10
-20.751366065269
 20
30.40634297262609
 30
0.0
 11
-20.86118871105242
 21
30.10347794424475
 31
0.0
  0
LINE
  5
1D6
330
70
100
AcDbEntity
  8
Top v2_Top v1_0
100
AcDbLine
 10
-14.50102497768926
 20
30.10347794424475
 30
0.0
 11
-14.63335777950812
 21
30.10347794424475
 31
0.0
  0
SPLINE
  5
1D7
330
70
100
AcDbEntity
  8
Top v2_Top v1_0
100
AcDbSpline
210
0.0
220
0.0
230
1.0
 70
     8
 71
     3
 72
     9
 73
     5
 74
     0
 42
0.000000001
 43
0.0000000001
 40
0.0
 40
0.0
 40
0.0
 40
0.0
 40
0.1551385402689996
 40
0.2947389741825028
 40
0.2947389741825028
 40
0.2947389741825028
 40
0.2947389741825028
 10
-19.11425830555487
 20
30.42066763769567
 30
0.0
 10
-19.12987092298822
 20
30.37039452171603
 30
0.0
 10
-19.15953245543937
 20
30.27488346039557
 30
0.0
 10
-19.23064476900647
 20
30.20485773814587
 30
0.0
 10
-19.26432646942664
 20
30.1716906918186
 30
0.0
  0
LINE
  5
1D8
330
70
100
AcDbEntity
  8
Top v2_Top v1_0
100
AcDbLine
 10
-23.3
 20
28.75310602172431
 30
0.0
 11
-23.3
 21
27.5
 31
0.0
  0
LINE
  5
1D9
330
70
100
AcDbEntity
  8
Top v2_Top v1_0
100
AcDbLine
 10
-15.01876045895148
 20
31.10347794424475
 30
0.0
 11
-14.85777832699347
 21
31.10347794424475
 31
0.0
  0
LINE
  5
1DA
330
70
100
AcDbEntity
  8
Top v2_Top v1_0
100
AcDbLine
 10
-15.25614048672247
 20
30.94044922720373
 30
0.0
 11
-15.54672743511725
 21
30.10347794424475
 31
0.0
  0
LINE
  5
1DB
330
70
100
AcDbEntity
  8
Top v2_Top v1_0
100
AcDbLine
 10
-22.97823194274576
 20
39.14376838613542
 30
0.0
 11
-20.66027230632879
 21
38.20725190259564
 31
0.0
  0
LINE
  5
1DC
330
70
100
AcDbEntity
  8
Top v2_Top v1_0
100
AcDbLine
 10
-18.1251723928504
 20
30.10347794424475
 30
0.0
 11
-18.27592255306768
 21
30.10347794424475
 31
0.0
  0
SPLINE
  5
1DD
330
70
100
AcDbEntity
  8
Top v2_Top v1_0
100
AcDbSpline
210
0.0
220
0.0
230
1.0
 70
     8
 71
     3
 72
     9
 73
     5
 74
     0
 42
0.000000001
 43
0.0000000001
 40
0.0
 40
0.0
 40
0.0
 40
0.0
 40
0.0878565041590443
 40
0.1683425629634212
 40
0.1683425629634212
 40
0.1683425629634212
 40
0.1683425629634212
 10
-18.54536320400763
 20
32.1962473286289
 30
0.0
 10
-18.5172771332479
 20
32.18632092381728
 30
0.0
 10
-18.46346118438309
 20
32.16730085873508
 30
0.0
 10
-18.42472794756449
 20
32.12550652782165
 30
0.0
 10
-18.40620924664068
 20
32.10552429090917
 30
0.0
  0
LINE
  5
1DE
330
70
100
AcDbEntity
  8
Top v2_Top v1_0
100
AcDbLine
 10
-10.70070056926867
 20
28.73812700105569
 30
0.0
 11
-10.70000090896675
 21
27.5
 31
0.0
  0
ARC
  5
1DF
330
70
100
AcDbEntity
  8
Top v2_Top v1_0
100
AcDbCircle
 10
6.237334848260314
 20
33.17509958177441
 30
0.0
 40
0.2999999999999982
210
0.0
220
0.0
230
-1.0
100
AcDbArc
 50
21.9999999999997
 51
112.0000000000004
  0
SPLINE
  5
1E0
330
70
100
AcDbEntity
  8
Top v2_Top v1_0
100
AcDbSpline
210
0.0
220
0.0
230
1.0
 70
     8
 71
     3
 72
     9
 73
     5
 74
     0
 42
0.000000001
 43
0.0000000001
 40
0.0
 40
0.0
 40
0.0
 40
0.0
 40
0.0860246810093372
 40
0.161664872386883
 40
0.161664872386883
 40
0.161664872386883
 40
0.161664872386883
 10
-17.21930624676275
 20
30.4070250881809
 30
0.0
 10
-17.22829798920808
 20
30.37966104493823
 30
0.0
 10
-17.24519603379136
 20
30.32823621537872
 30
0.0
 10
-17.2740286929308
 20
30.2824650386094
 30
0.0
 10
-17.2875189943366
 20
30.26104949842871
 30
0.0
  0
LINE
  5
1E1
330
70
100
AcDbEntity
  8
Top v2_Top v1_0
100
AcDbLine
 10
-18.39256645870733
 20
30.40634297262609
 30
0.0
 11
-18.81071116161871
 21
30.40634297262609
 31
0.0
  0
ARC
  5
1E2
330
70
100
AcDbEntity
  8
Top v2_Top v1_0
100
AcDbCircle
 10
-7.29456800485068
 20
32.16003599243417
 30
0.0
 40
0.299999999999995
100
AcDbArc
 50
256.2132107017845
 51
338.0000000000016
  0
LINE
  5
1E3
330
70
100
AcDbEntity
  8
Top v2_Top v1_0
100
AcDbLine
 10
-16.87551333141852
 20
30.56186818014563
 30
0.0
 11
-16.87551333141852
 21
30.22148608099402
 31
0.0
  0
LINE
  5
1E4
330
70
100
AcDbEntity
  8
Top v2_Top v1_0
100
AcDbLine
 10
-14.50102497768926
 20
30.5270795715946
 30
0.0
 11
-14.50102497768926
 21
30.10347794424475
 31
0.0
  0
SPLINE
  5
1E5
330
70
100
AcDbEntity
  8
Top v2_Top v1_0
100
AcDbSpline
210
0.0
220
0.0
230
1.0
 70
     8
 71
     3
 72
     9
 73
     5
 74
     0
 42
0.000000001
 43
0.0000000001
 40
0.0
 40
0.0
 40
0.0
 40
0.0
 40
0.0673842273990755
 40
0.1292855636101346
 40
0.1292855636101346
 40
0.1292855636101346
 40
0.1292855636101346
 10
-17.2875189943366
 20
30.26104949842871
 30
0.0
 10
-17.30134809549118
 20
30.24320561916983
 30
0.0
 10
-17.32788105737263
 20
30.20896977383895
 30
0.0
 10
-17.36239772507351
 20
30.18283815853244
 30
0.0
 10
-17.37892414761114
 20
30.17032646070898
 30
0.0
  0
SPLINE
  5
1E6
330
70
100
AcDbEntity
  8
Top v2_Top v1_0
100
AcDbSpline
210
0.0
220
0.0
230
1.0
 70
     8
 71
     3
 72
     9
 73
     5
 74
     0
 42
0.000000001
 43
0.0000000001
 40
0.0
 40
0.0
 40
0.0
 40
0.0
 40
0.0625630520151019
 40
0.1188771242360588
 40
0.1188771242360588
 40
0.1188771242360588
 40
0.1188771242360588
 10
-18.38710953426886
 20
31.82312320600927
 30
0.0
 10
-18.3970621455569
 20
31.80457627539571
 30
0.0
 10
-18.41597327233948
 20
31.76933493559957
 30
0.0
 10
-18.44591393767394
 20
31.74288396663667
 30
0.0
 10
-18.46009732914495
 20
31.73035370241583
 30
0.0
  0
SPLINE
  5
1E7
330
70
100
AcDbEntity
  8
Top v2_Top v1_0
100
AcDbSpline
210
0.0
220
0.0
230
1.0
 70
     8
 71
     3
 72
     9
 73
     5
 74
     0
 42
0.000000001
 43
0.0000000001
 40
0.0
 40
0.0
 40
0.0
 40
0.0
 40
0.0790276054176139
 40
0.1614615046816191
 40
0.1614615046816191
 40
0.1614615046816191
 40
0.1614615046816191
 10
-18.40620924664068
 20
32.10552429090917
 30
0.0
 10
-18.39188632576145
 20
32.08288943274638
 30
0.0
 10
-18.36262312913063
 20
32.03664409558972
 30
0.0
 10
-18.35896408952684
 20
31.9819935306169
 30
0.0
 10
-18.35709597302008
 20
31.9540917767185
 30
0.0
  0
LINE
  5
1E8
330
70
100
AcDbEntity
  8
Top v2_Top v1_0
100
AcDbLine
 10
-20.75273032618094
 20
31.66418730150641
 30
0.0
 11
-20.88506320250559
 21
31.66418730150641
 31
0.0
  0
LINE
  5
1E9
330
70
100
AcDbEntity
  8
Top v2_Top v1_0
100
AcDbLine
 10
-5.002993747735028
 20
32.79777078263054
 30
0.0
 11
-5.000169624523885
 21
27.80016952869687
 31
0.0
  0
LINE
  5
1EA
330
70
100
AcDbEntity
  8
Top v2_Top v1_0
100
AcDbLine
 10
-20.28342612219382
 20
32.11848472486913
 30
0.0
 11
-20.75273032618094
 21
32.11848472486913
 31
0.0
  0
LINE
  5
1EB
330
70
100
AcDbEntity
  8
Top v2_Top v1_0
100
AcDbLine
 10
-16.87551333141852
 20
30.67919420134008
 30
0.0
 11
-16.32230736446905
 21
30.67919420134008
 31
0.0
  0
LINE
  5
1EC
330
70
100
AcDbEntity
  8
Top v2_Top v1_0
100
AcDbLine
 10
-14.44986559582281
 20
30.8094806564945
 30
0.0
 11
-14.25614096355963
 21
31.10347794424475
 31
0.0
  0
SPLINE
  5
1ED
330
70
100
AcDbEntity
  8
Top v2_Top v1_0
100
AcDbSpline
210
0.0
220
0.0
230
1.0
 70
     8
 71
     3
 72
     9
 73
     5
 74
     0
 42
0.000000001
 43
0.0000000001
 40
0.0
 40
0.0
 40
0.0
 40
0.0
 40
0.1394451178420486
 40
0.2672642300186825
 40
0.2672642300186825
 40
0.2672642300186825
 40
0.2672642300186825
 10
-19.52626373005438
 20
31.12053107153356
 30
0.0
 10
-19.4790477340561
 20
31.11793947968716
 30
0.0
 10
-19.38855229749776
 20
31.11297236567073
 30
0.0
 10
-19.31097672314521
 20
31.06640401268368
 30
0.0
 10
-19.27387620640326
 20
31.04413269888342
 30
0.0
  0
SPLINE
  5
1EE
330
70
100
AcDbEntity
  8
Top v2_Top v1_0
100
AcDbSpline
210
0.0
220
0.0
230
1.0
 70
     8
 71
     3
 72
     9
 73
     5
 74
     0
 42
0.000000001
 43
0.0000000001
 40
0.0
 40
0.0
 40
0.0
 40
0.0
 40
0.1076408821409833
 40
0.2041993879456523
 40
0.2041993879456523
 40
0.2041993879456523
 40
0.2041993879456523
 10
-17.19270302486944
 20
30.60893486868323
 30
0.0
 10
-17.1935500800433
 20
30.57293709325386
 30
0.0
 10
-17.19515698017843
 20
30.50464776336474
 30
0.0
 10
-17.21155310995033
 20
30.43836690777827
 30
0.0
 10
-17.21930624676275
 20
30.4070250881809
 30
0.0
  0
ENDSEC
  0
SECTION
  2
OBJECTS
  0
DICTIONARY
  5
C
330
0
100
AcDbDictionary
281
     1
  3
ACAD_COLOR
350
63
  3
ACAD_DETAILVIEWSTYLE
350
6A
  3
ACAD_GROUP
350
D
  3
ACAD_LAYOUT
350
62
  3
ACAD_MATERIAL
350
10
  3
ACAD_MLEADERSTYLE
350
66
  3
ACAD_MLINESTYLE
350
5F
  3
ACAD_PLOTSETTINGS
350
61
  3
ACAD_PLOTSTYLENAME
350
E
  3
ACAD_SCALELIST
350
42
  3
ACAD_SECTIONVIEWSTYLE
350
68
  3
ACAD_TABLESTYLE
350
64
  3
ACAD_VISUALSTYLE
350
29
  3
ACDB_RECOMPOSE_DATA
350
1F7
  3
AcDbVariableDictionary
350
1EF
  0
DICTIONARY
  5
63
102
{ACAD_REACTORS
330
C
102
}
330
C
100
AcDbDictionary
281
     1
  0
DICTIONARY
  5
6A
102
{ACAD_REACTORS
330
C
102
}
330
C
100
AcDbDictionary
281
     1
  3
Imperial24
350
6B
  0
DICTIONARY
  5
D
102
{ACAD_REACTORS
330
C
102
}
330
C
100
AcDbDictionary
281
     1
  0
DICTIONARY
  5
62
102
{ACAD_REACTORS
330
C
102
}
330
C
100
AcDbDictionary
281
     1
  3
Layout1
350
6F
  3
Layout2
350
77
  3
Model
350
73
  0
DICTIONARY
  5
10
102
{ACAD_REACTORS
330
C
102
}
330
C
100
AcDbDictionary
281
     1
  3
ByBlock
350
19
  3
ByLayer
350
11
  3
Global
350
21
  0
DICTIONARY
  5
66
102
{ACAD_REACTORS
330
C
102
}
330
C
100
AcDbDictionary
281
     1
  3
Standard
350
67
  0
DICTIONARY
  5
5F
102
{ACAD_REACTORS
330
C
102
}
330
C
100
AcDbDictionary
281
     1
  3
Standard
350
60
  0
DICTIONARY
  5
61
102
{ACAD_REACTORS
330
C
102
}
330
C
100
AcDbDictionary
281
     1
  0
ACDBDICTIONARYWDFLT
  5
E
102
{ACAD_REACTORS
330
C
102
}
330
C
100
AcDbDictionary
281
     1
  3
Normal
350
F
100
AcDbDictionaryWithDefault
340
F
  0
DICTIONARY
  5
42
102
{ACAD_REACTORS
330
C
102
}
330
C
100
AcDbDictionary
281
     1
  3
A0
350
43
  3
A1
350
44
  3
A2
350
45
  3
A3
350
46
  3
A4
350
47
  3
A5
350
48
  3
A6
350
49
  3
A7
350
4A
  3
A8
350
4B
  3
A9
350
4C
  3
B0
350
4D
  3
B1
350
4E
  3
B2
350
4F
  3
B3
350
50
  3
B4
350
51
  3
B5
350
52
  3
B6
350
53
  0
DICTIONARY
  5
68
102
{ACAD_REACTORS
330
C
102
}
330
C
100
AcDbDictionary
281
     1
  3
Imperial24
350
69
  0
DICTIONARY
  5
64
102
{ACAD_REACTORS
330
C
102
}
330
C
100
AcDbDictionary
281
     1
  3
Standard
350
65
  0
DICTIONARY
  5
29
102
{ACAD_REACTORS
330
C
102
}
330
C
100
AcDbDictionary
281
     1
  3
2dWireframe
350
2F
  3
Basic
350
2E
  3
Brighten
350
35
  3
ColorChange
350
39
  3
Conceptual
350
32
  3
Dim
350
34
  3
EdgeColorOff
350
41
  3
Facepattern
350
38
  3
Flat
350
2A
  3
FlatWithEdges
350
2B
  3
Gouraud
350
2C
  3
GouraudWithEdges
350
2D
  3
Hidden
350
31
  3
JitterOff
350
3F
  3
Linepattern
350
37
  3
OverhangOff
350
40
  3
Realistic
350
33
  3
Shaded
350
3E
  3
Shaded with edges
350
3D
  3
Shades of Gray
350
3A
  3
Sketchy
350
3B
  3
Thicken
350
36
  3
Wireframe
350
30
  3
X-Ray
350
3C
  0
XRECORD
  5
1F7
102
{ACAD_REACTORS
330
C
102
}
330
C
100
AcDbXrecord
280
     1
 90
        1
330
65
  0
DICTIONARY
  5
1EF
102
{ACAD_REACTORS
330
C
102
}
330
C
100
AcDbDictionary
281
     1
  3
CANNOSCALE
350
1F4
  3
CMLEADERSTYLE
350
1F1
  3
CTABLESTYLE
350
1F0
  3
CVIEWDETAILSTYLE
350
1F2
  3
CVIEWSECTIONSTYLE
350
1F3
  0
ACDBDETAILVIEWSTYLE
  5
6B
102
{ACAD_XDICTIONARY
360
1FA
102
}
102
{ACAD_REACTORS
330
6A
102
}
330
6A
100
AcDbModelDocViewStyle
 70
     0
  3
Imperial24
290
     0
100
AcDbDetailViewStyle
 70
     0
 71
     0
 90
        3
 71
     1
340
55
 62
   256
 40
0.24
340
0
 62
   256
 40
0.24
300

 40
0.36
280
     3
 71
     2
340
5D
 90
       25
 62
   256
 71
     3
340
55
 62
   256
 40
0.24
 90
        1
 40
0.75
 90
        1
300
%<\AcVar ViewType \f "%tc1">% %<\AcVar ViewDetailId>%\PSCALE %<\AcVar ViewScale \f "%sn">%
 71
     4
340
5D
 90
       25
 62
   256
340
5D
 90
       25
 62
   256
280
     0
  0
LAYOUT
  5
6F
102
{ACAD_REACTORS
330
62
102
}
330
62
100
AcDbPlotSettings
  1

  2

  4

  6

 40
0.0
 41
0.0
 42
0.0
 43
0.0
 44
0.0
 45
0.0
 46
0.0
 47
0.0
 48
0.0
 49
0.0
140
0.0
141
0.0
142
1.0
143
1.0
 70
   688
 72
     0
 73
     0
 74
     5
  7

 75
    16
147
1.0
 76
     0
 77
     2
 78
   300
148
0.0
149
0.0
100
AcDbLayout
  1
Layout1
 70
     1
 71
     1
 10
0.0
 20
0.0
 11
12.0
 21
9.0
 12
0.0
 22
0.0
 32
0.0
 14
0.0
 24
0.0
 34
0.0
 15
0.0
 25
0.0
 35
0.0
146
0.0
 13
0.0
 23
0.0
 33
0.0
 16
1.0
 26
0.0
 36
0.0
 17
0.0
 27
1.0
 37
0.0
 76
     0
330
6C
  0
LAYOUT
  5
77
102
{ACAD_REACTORS
330
62
102
}
330
62
100
AcDbPlotSettings
  1

  2

  4

  6

 40
0.0
 41
0.0
 42
0.0
 43
0.0
 44
0.0
 45
0.0
 46
0.0
 47
0.0
 48
0.0
 49
0.0
140
0.0
141
0.0
142
1.0
143
1.0
 70
   688
 72
     0
 73
     0
 74
     5
  7

 75
    16
147
1.0
 76
     0
 77
     2
 78
   300
148
0.0
149
0.0
100
AcDbLayout
  1
Layout2
 70
     1
 71
     2
 10
0.0
 20
0.0
 11
12.0
 21
9.0
 12
0.0
 22
0.0
 32
0.0
 14
0.0
 24
0.0
 34
0.0
 15
0.0
 25
0.0
 35
0.0
146
0.0
 13
0.0
 23
0.0
 33
0.0
 16
1.0
 26
0.0
 36
0.0
 17
0.0
 27
1.0
 37
0.0
 76
     0
330
74
  0
LAYOUT
  5
73
102
{ACAD_REACTORS
330
62
102
}
330
62
100
AcDbPlotSettings
  1

  2

  4

  6

 40
0.0
 41
0.0
 42
0.0
 43
0.0
 44
0.0
 45
0.0
 46
0.0
 47
0.0
 48
0.0
 49
0.0
140
0.0
141
0.0
142
1.0
143
1.0
 70
  1712
 72
     0
 73
     0
 74
     0
  7

 75
     0
147
1.0
 76
     0
 77
     2
 78
   300
148
0.0
149
0.0
100
AcDbLayout
  1
Model
 70
     1
 71
     0
 10
0.0
 20
0.0
 11
12.0
 21
9.0
 12
0.0
 22
0.0
 32
0.0
 14
0.0
 24
0.0
 34
0.0
 15
0.0
 25
0.0
 35
0.0
146
0.0
 13
0.0
 23
0.0
 33
0.0
 16
1.0
 26
0.0
 36
0.0
 17
0.0
 27
1.0
 37
0.0
 76
     0
330
70
  0
MATERIAL
  5
19
102
{ACAD_XDICTIONARY
360
1A
102
}
102
{ACAD_REACTORS
330
10
102
}
330
10
100
AcDbMaterial
  1
ByBlock
 72
     0
 43
0.0208333333333333
 43
0.0
 43
0.0
 43
0.0
 43
0.0
 43
0.0208333333333333
 43
0.0
 43
0.0
 43
0.0
 43
0.0
 43
1.0
 43
0.0
 43
0.0
 43
0.0
 43
0.0
 43
1.0
 77
     0
 47
0.0208333333333333
 47
0.0
 47
0.0
 47
0.0
 47
0.0
 47
0.0208333333333333
 47
0.0
 47
0.0
 47
0.0
 47
0.0
 47
1.0
 47
0.0
 47
0.0
 47
0.0
 47
0.0
 47
1.0
171
     0
 49
0.0208333333333333
 49
0.0
 49
0.0
 49
0.0
 49
0.0
 49
0.0208333333333333
 49
0.0
 49
0.0
 49
0.0
 49
0.0
 49
1.0
 49
0.0
 49
0.0
 49
0.0
 49
0.0
 49
1.0
175
     0
142
0.0208333333333333
142
0.0
142
0.0
142
0.0
142
0.0
142
0.0208333333333333
142
0.0
142
0.0
142
0.0
142
0.0
142
1.0
142
0.0
142
0.0
142
0.0
142
0.0
142
1.0
179
     0
144
0.0208333333333333
144
0.0
144
0.0
144
0.0
144
0.0
144
0.0208333333333333
144
0.0
144
0.0
144
0.0
144
0.0
144
1.0
144
0.0
144
0.0
144
0.0
144
0.0
144
1.0
147
0.0208333333333333
147
0.0
147
0.0
147
0.0
147
0.0
147
0.0208333333333333
147
0.0
147
0.0
147
0.0
147
0.0
147
1.0
147
0.0
147
0.0
147
0.0
147
0.0
147
1.0
  0
MATERIAL
  5
11
102
{ACAD_XDICTIONARY
360
12
102
}
102
{ACAD_REACTORS
330
10
102
}
330
10
100
AcDbMaterial
  1
ByLayer
 72
     0
 43
0.0208333333333333
 43
0.0
 43
0.0
 43
0.0
 43
0.0
 43
0.0208333333333333
 43
0.0
 43
0.0
 43
0.0
 43
0.0
 43
1.0
 43
0.0
 43
0.0
 43
0.0
 43
0.0
 43
1.0
 77
     0
 47
0.0208333333333333
 47
0.0
 47
0.0
 47
0.0
 47
0.0
 47
0.0208333333333333
 47
0.0
 47
0.0
 47
0.0
 47
0.0
 47
1.0
 47
0.0
 47
0.0
 47
0.0
 47
0.0
 47
1.0
171
     0
 49
0.0208333333333333
 49
0.0
 49
0.0
 49
0.0
 49
0.0
 49
0.0208333333333333
 49
0.0
 49
0.0
 49
0.0
 49
0.0
 49
1.0
 49
0.0
 49
0.0
 49
0.0
 49
0.0
 49
1.0
175
     0
142
0.0208333333333333
142
0.0
142
0.0
142
0.0
142
0.0
142
0.0208333333333333
142
0.0
142
0.0
142
0.0
142
0.0
142
1.0
142
0.0
142
0.0
142
0.0
142
0.0
142
1.0
179
     0
144
0.0208333333333333
144
0.0
144
0.0
144
0.0
144
0.0
144
0.0208333333333333
144
0.0
144
0.0
144
0.0
144
0.0
144
1.0
144
0.0
144
0.0
144
0.0
144
0.0
144
1.0
147
0.0208333333333333
147
0.0
147
0.0
147
0.0
147
0.0
147
0.0208333333333333
147
0.0
147
0.0
147
0.0
147
0.0
147
1.0
147
0.0
147
0.0
147
0.0
147
0.0
147
1.0
  0
MATERIAL
  5
21
102
{ACAD_XDICTIONARY
360
22
102
}
102
{ACAD_REACTORS
330
10
102
}
330
10
100
AcDbMaterial
  1
Global
 72
     0
 43
0.0208333333333333
 43
0.0
 43
0.0
 43
0.0
 43
0.0
 43
0.0208333333333333
 43
0.0
 43
0.0
 43
0.0
 43
0.0
 43
1.0
 43
0.0
 43
0.0
 43
0.0
 43
0.0
 43
1.0
 77
     0
 47
0.0208333333333333
 47
0.0
 47
0.0
 47
0.0
 47
0.0
 47
0.0208333333333333
 47
0.0
 47
0.0
 47
0.0
 47
0.0
 47
1.0
 47
0.0
 47
0.0
 47
0.0
 47
0.0
 47
1.0
171
     0
 49
0.0208333333333333
 49
0.0
 49
0.0
 49
0.0
 49
0.0
 49
0.0208333333333333
 49
0.0
 49
0.0
 49
0.0
 49
0.0
 49
1.0
 49
0.0
 49
0.0
 49
0.0
 49
0.0
 49
1.0
175
     0
142
0.0208333333333333
142
0.0
142
0.0
142
0.0
142
0.0
142
0.0208333333333333
142
0.0
142
0.0
142
0.0
142
0.0
142
1.0
142
0.0
142
0.0
142
0.0
142
0.0
142
1.0
179
     0
144
0.0208333333333333
144
0.0
144
0.0
144
0.0
144
0.0
144
0.0208333333333333
144
0.0
144
0.0
144
0.0
144
0.0
144
1.0
144
0.0
144
0.0
144
0.0
144
0.0
144
1.0
147
0.0208333333333333
147
0.0
147
0.0
147
0.0
147
0.0
147
0.0208333333333333
147
0.0
147
0.0
147
0.0
147
0.0
147
1.0
147
0.0
147
0.0
147
0.0
147
0.0
147
1.0
  0
MLEADERSTYLE
  5
67
102
{ACAD_REACTORS
330
66
102
}
330
66
100
AcDbMLeaderStyle
179
     2
170
     2
171
     1
172
     0
 90
        2
 40
0.0
 41
0.0
173
     1
 91
-1056964608
340
5B
 92
       -2
290
     1
 42
0.09
291
     1
 43
0.36
  3
Standard
 44
0.18
300

342
55
174
     1
178
     6
175
     1
176
     0
 93
-1056964608
 45
0.18
292
     0
297
     0
 46
0.18
 94
-1056964608
 47
1.0
 49
1.0
140
1.0
293
     1
141
0.0
294
     1
177
     0
142
1.0
295
     0
296
     0
143
0.125
271
     0
272
     9
273
     9
298
     1
  0
MLINESTYLE
  5
60
102
{ACAD_REACTORS
330
5F
102
}
330
5F
100
AcDbMlineStyle
  2
STANDARD
 70
     0
  3

 62
   256
 51
90.0
 52
90.0
 71
     2
 49
0.5
 62
   256
  6
BYLAYER
 49
-0.5
 62
   256
  6
BYLAYER
  0
ACDBPLACEHOLDER
  5
F
102
{ACAD_REACTORS
330
E
102
}
330
E
  0
SCALE
  5
43
102
{ACAD_REACTORS
330
42
102
}
330
42
100
AcDbScale
 70
     0
300
1:1
140
1.0
141
1.0
290
     1
  0
SCALE
  5
44
102
{ACAD_REACTORS
330
42
102
}
330
42
100
AcDbScale
 70
     0
300
1/128" = 1'-0"
140
0.0078125
141
12.0
290
     0
  0
SCALE
  5
45
102
{ACAD_REACTORS
330
42
102
}
330
42
100
AcDbScale
 70
     0
300
1/64" = 1'-0"
140
0.015625
141
12.0
290
     0
  0
SCALE
  5
46
102
{ACAD_REACTORS
330
42
102
}
330
42
100
AcDbScale
 70
     0
300
1/32" = 1'-0"
140
0.03125
141
12.0
290
     0
  0
SCALE
  5
47
102
{ACAD_REACTORS
330
42
102
}
330
42
100
AcDbScale
 70
     0
300
1/16" = 1'-0"
140
0.0625
141
12.0
290
     0
  0
SCALE
  5
48
102
{ACAD_REACTORS
330
42
102
}
330
42
100
AcDbScale
 70
     0
300
3/32" = 1'-0"
140
0.09375
141
12.0
290
     0
  0
SCALE
  5
49
102
{ACAD_REACTORS
330
42
102
}
330
42
100
AcDbScale
 70
     0
300
1/8" = 1'-0"
140
0.125
141
12.0
290
     0
  0
SCALE
  5
4A
102
{ACAD_REACTORS
330
42
102
}
330
42
100
AcDbScale
 70
     0
300
3/16" = 1'-0"
140
0.1875
141
12.0
290
     0
  0
SCALE
  5
4B
102
{ACAD_REACTORS
330
42
102
}
330
42
100
AcDbScale
 70
     0
300
1/4" = 1'-0"
140
0.25
141
12.0
290
     0
  0
SCALE
  5
4C
102
{ACAD_REACTORS
330
42
102
}
330
42
100
AcDbScale
 70
     0
300
3/8" = 1'-0"
140
0.375
141
12.0
290
     0
  0
SCALE
  5
4D
102
{ACAD_REACTORS
330
42
102
}
330
42
100
AcDbScale
 70
     0
300
1/2" = 1'-0"
140
0.5
141
12.0
290
     0
  0
SCALE
  5
4E
102
{ACAD_REACTORS
330
42
102
}
330
42
100
AcDbScale
 70
     0
300
3/4" = 1'-0"
140
0.75
141
12.0
290
     0
  0
SCALE
  5
4F
102
{ACAD_REACTORS
330
42
102
}
330
42
100
AcDbScale
 70
     0
300
1" = 1'-0"
140
1.0
141
12.0
290
     0
  0
SCALE
  5
50
102
{ACAD_REACTORS
330
42
102
}
330
42
100
AcDbScale
 70
     0
300
1-1/2" = 1'-0"
140
1.5
141
12.0
290
     0
  0
SCALE
  5
51
102
{ACAD_REACTORS
330
42
102
}
330
42
100
AcDbScale
 70
     0
300
3" = 1'-0"
140
3.0
141
12.0
290
     0
  0
SCALE
  5
52
102
{ACAD_REACTORS
330
42
102
}
330
42
100
AcDbScale
 70
     0
300
6" = 1'-0"
140
6.0
141
12.0
290
     0
  0
SCALE
  5
53
102
{ACAD_REACTORS
330
42
102
}
330
42
100
AcDbScale
 70
     0
300
1'-0" = 1'-0"
140
12.0
141
12.0
290
     0
  0
ACDBSECTIONVIEWSTYLE
  5
69
102
{ACAD_XDICTIONARY
360
1F8
102
}
102
{ACAD_REACTORS
330
68
102
}
330
68
100
AcDbModelDocViewStyle
 70
     0
  3
Imperial24
290
     0
100
AcDbSectionViewStyle
 70
     0
 71
     0
 90
       78
 71
     1
340
55
 62
   256
 40
0.24
340
0
340
0
 62
   256
 40
0.24
300
I, O, Q, S, X, Z
 40
0.48
 90
        3
 40
0.18
 90
        1
 71
     2
340
5D
 90
       25
 62
   256
340
5D
 90
       50
 62
   256
 40
0.24
 40
0.0
 40
0.24
 71
     3
340
55
 62
   256
 40
0.24
 90
        1
 40
0.75
 90
        1
300
%<\AcVar ViewType \f "%tc1">% %<\AcVar ViewSectionStartId>%-%<\AcVar ViewSectionEndId>%\PSCALE %<\AcVar ViewScale \f "%sn">%
 71
     4
 62
   256
 62
   257
300
ANSI31
 40
1.0
 90
        0
290
     0
290
     0
 90
        6
 40
0.0
 40
1.570796326794896
 40
0.2617993877991494
 40
1.308996938995747
 40
-0.2617993877991494
 40
1.832595714594046
  0
TABLESTYLE
  5
65
102
{ACAD_XDICTIONARY
360
1F5
102
}
102
{ACAD_REACTORS
330
64
102
}
330
64
100
AcDbTableStyle
280
     0
  3
Standard
 70
     0
 71
     0
 40
0.06
 41
0.06
280
     0
281
     0
  7
Standard
140
0.18
170
     2
 62
     0
 63
     7
283
     0
 90
      512
 91
        0
  1

274
    -2
284
     1
 64
     0
275
    -2
285
     1
 65
     0
276
    -2
286
     1
 66
     0
277
    -2
287
     1
 67
     0
278
    -2
288
     1
 68
     0
279
    -2
289
     1
 69
     0
  7
Standard
140
0.25
170
     5
 62
     0
 63
     7
283
     0
 90
      512
 91
        0
  1

274
    -2
284
     1
 64
     0
275
    -2
285
     1
 65
     0
276
    -2
286
     1
 66
     0
277
    -2
287
     1
 67
     0
278
    -2
288
     1
 68
     0
279
    -2
289
     1
 69
     0
  7
Standard
140
0.18
170
     5
 62
     0
 63
     7
283
     0
 90
      512
 91
        0
  1

274
    -2
284
     1
 64
     0
275
    -2
285
     1
 65
     0
276
    -2
286
     1
 66
     0
277
    -2
287
     1
 67
     0
278
    -2
288
     1
 68
     0
279
    -2
289
     1
 69
     0
  0
VISUALSTYLE
  5
2F
102
{ACAD_REACTORS
330
29
102
}
330
29
100
AcDbVisualStyle
  2
2dWireframe
 70
     4
177
     3
291
     0
 70
    58
 90
        0
176
     1
 90
        2
176
     1
 90
        0
176
     1
 90
        0
176
     1
 40
0.6
176
     1
 40
30.0
176
     1
 62
     7
420
 16777215
176
     1
 90
        1
176
     1
 90
        4
176
     1
 62
     7
176
     1
 62
   257
176
     1
 90
        1
176
     1
 90
        1
176
     1
 40
1.0
176
     1
 90
        0
176
     1
 62
   257
176
     1
 40
1.0
176
     1
 90
        1
176
     1
 90
        6
176
     1
 90
        2
176
     1
 62
     7
176
     1
 90
        5
176
     1
 90
        0
176
     1
 90
        0
176
     1
290
     0
176
     1
 90
        1
176
     1
 40
0.0
176
     1
 90
        0
176
     1
290
     1
176
     1
290
     1
176
     1
290
     0
176
     1
290
     0
176
     1
290
     0
176
     1
290
     0
176
     1
290
     0
176
     1
290
     0
176
     1
290
     0
176
     1
 90
       50
176
     1
 40
0.0
176
     1
 40
1.0
176
     1
 90
        0
176
     1
 62
    18
420
        0
176
     1
 90
       50
176
     1
 90
        3
176
     1
 62
     5
420
      255
176
     1
290
     0
176
     1
 90
       50
176
     1
 90
       50
176
     1
 90
       50
176
     1
290
     0
176
     1
 90
       50
176
     1
 62
   256
176
     0
 40
1.0
176
     0
 90
        2
176
     1
  1
strokes_ogs.tif
176
     1
290
     0
176
     1
 40
1.0
176
     1
 40
1.0
176
     1
1001
ACAD
1000
AcDbSavedByObjectVersion
1070
     0
  0
VISUALSTYLE
  5
2E
102
{ACAD_REACTORS
330
29
102
}
330
29
100
AcDbVisualStyle
  2
Basic
 70
     7
177
     3
291
     1
 70
    58
 90
        1
176
     1
 90
        0
176
     1
 90
        1
176
     1
 90
        0
176
     1
 40
0.6
176
     1
 40
30.0
176
     1
 62
     7
420
 16777215
176
     1
 90
        0
176
     1
 90
        4
176
     1
 62
     7
176
     1
 62
   257
176
     1
 90
        1
176
     1
 90
        1
176
     1
 40
1.0
176
     1
 90
        8
176
     1
 62
     7
176
     1
 40
1.0
176
     1
 90
        1
176
     1
 90
        6
176
     1
 90
        2
176
     1
 62
     7
176
     1
 90
        5
176
     1
 90
        0
176
     1
 90
        0
176
     1
290
     0
176
     1
 90
        1
176
     1
 40
0.0
176
     1
 90
        0
176
     1
290
     0
176
     1
290
     1
176
     1
290
     1
176
     1
290
     0
176
     1
290
     0
176
     1
290
     0
176
     1
290
     0
176
     1
290
     0
176
     1
290
     0
176
     1
 90
       50
176
     1
 40
0.0
176
     1
 40
1.0
176
     1
 90
        0
176
     1
 62
    18
420
        0
176
     1
 90
       50
176
     1
 90
        3
176
     1
 62
     5
420
      255
176
     1
290
     0
176
     1
 90
       50
176
     1
 90
       50
176
     1
 90
       50
176
     1
290
     0
176
     1
 90
       50
176
     1
 62
   256
176
     0
 40
1.0
176
     0
 90
        2
176
     1
  1
strokes_ogs.tif
176
     1
290
     0
176
     1
 40
1.0
176
     1
 40
1.0
176
     1
1001
ACAD
1000
AcDbSavedByObjectVersion
1070
     0
  0
VISUALSTYLE
  5
35
102
{ACAD_REACTORS
330
29
102
}
330
29
100
AcDbVisualStyle
  2
Brighten
 70
    12
177
     3
291
     1
 70
    58
 90
        2
176
     1
 90
        2
176
     1
 90
        0
176
     1
 90
        0
176
     1
 40
0.6
176
     1
 40
30.0
176
     1
 62
     7
420
 16777215
176
     1
 90
        1
176
     1
 90
        4
176
     1
 62
     7
176
     1
 62
   257
176
     1
 90
        1
176
     1
 90
        1
176
     1
 40
1.0
176
     1
 90
        8
176
     1
 62
     7
176
     1
 40
1.0
176
     1
 90
        1
176
     1
 90
        6
176
     1
 90
        2
176
     1
 62
     7
176
     1
 90
        5
176
     1
 90
        0
176
     1
 90
        0
176
     1
290
     0
176
     1
 90
        1
176
     1
 40
50.0
176
     1
 90
        0
176
     1
290
     0
176
     1
290
     1
176
     1
290
     1
176
     1
290
     0
176
     1
290
     0
176
     1
290
     0
176
     1
290
     0
176
     1
290
     0
176
     1
290
     0
176
     1
 90
       50
176
     1
 40
0.0
176
     1
 40
1.0
176
     1
 90
        0
176
     1
 62
    18
420
        0
176
     1
 90
       50
176
     1
 90
        3
176
     1
 62
     5
420
      255
176
     1
290
     0
176
     1
 90
       50
176
     1
 90
       50
176
     1
 90
       50
176
     1
290
     0
176
     1
 90
       50
176
     1
 62
   256
176
     0
 40
1.0
176
     0
 90
        2
176
     1
  1
strokes_ogs.tif
176
     1
290
     0
176
     1
 40
1.0
176
     1
 40
1.0
176
     1
1001
ACAD
1000
AcDbSavedByObjectVersion
1070
     0
  0
VISUALSTYLE
  5
39
102
{ACAD_REACTORS
330
29
102
}
330
29
100
AcDbVisualStyle
  2
ColorChange
 70
    16
177
     3
291
     1
 70
    58
 90
        2
176
     1
 90
        2
176
     1
 90
        3
176
     1
 90
        0
176
     1
 40
0.6
176
     1
 40
30.0
176
     1
 62
     8
420
  8421504
176
     1
 90
        1
176
     1
 90
        4
176
     1
 62
     7
176
     1
 62
   257
176
     1
 90
        1
176
     1
 90
        1
176
     1
 40
1.0
176
     1
 90
        8
176
     1
 62
     8
420
  8421504
176
     1
 40
1.0
176
     1
 90
        1
176
     1
 90
        6
176
     1
 90
        2
176
     1
 62
     7
176
     1
 90
        5
176
     1
 90
        0
176
     1
 90
        0
176
     1
290
     0
176
     1
 90
        1
176
     1
 40
0.0
176
     1
 90
        0
176
     1
290
     0
176
     1
290
     1
176
     1
290
     1
176
     1
290
     0
176
     1
290
     0
176
     1
290
     0
176
     1
290
     0
176
     1
290
     0
176
     1
290
     0
176
     1
 90
       50
176
     1
 40
0.0
176
     1
 40
1.0
176
     1
 90
        0
176
     1
 62
    18
420
        0
176
     1
 90
       50
176
     1
 90
        3
176
     1
 62
     5
420
      255
176
     1
290
     0
176
     1
 90
       50
176
     1
 90
       50
176
     1
 90
       50
176
     1
290
     0
176
     1
 90
       50
176
     1
 62
   256
176
     0
 40
1.0
176
     0
 90
        2
176
     1
  1
strokes_ogs.tif
176
     1
290
     0
176
     1
 40
1.0
176
     1
 40
1.0
176
     1
1001
ACAD
1000
AcDbSavedByObjectVersion
1070
     0
  0
VISUALSTYLE
  5
32
102
{ACAD_REACTORS
330
29
102
}
330
29
100
AcDbVisualStyle
  2
Conceptual
 70
     9
177
     3
291
     0
 70
    58
 90
        3
176
     1
 90
        2
176
     1
 90
        0
176
     1
 90
        0
176
     1
 40
0.6
176
     1
 40
30.0
176
     1
 62
     7
420
 16777215
176
     1
 90
        2
176
     1
 90
        2
176
     1
 62
     7
176
     1
 62
   257
176
     1
 90
        1
176
     1
 90
        1
176
     1
 40
179.0
176
     1
 90
        8
176
     1
 62
     7
176
     1
 40
1.0
176
     1
 90
        1
176
     1
 90
        6
176
     1
 90
        2
176
     1
 62
     7
176
     1
 90
        3
176
     1
 90
        0
176
     1
 90
        0
176
     1
290
     0
176
     1
 90
        1
176
     1
 40
0.0
176
     1
 90
        0
176
     1
290
     0
176
     1
290
     1
176
     1
290
     1
176
     1
290
     0
176
     1
290
     0
176
     1
290
     0
176
     1
290
     0
176
     1
290
     0
176
     1
290
     0
176
     1
 90
       50
176
     1
 40
0.0
176
     1
 40
1.0
176
     1
 90
        0
176
     1
 62
    18
420
        0
176
     1
 90
       50
176
     1
 90
        3
176
     1
 62
     5
420
      255
176
     1
290
     0
176
     1
 90
       50
176
     1
 90
       50
176
     1
 90
       50
176
     1
290
     0
176
     1
 90
       50
176
     1
 62
   256
176
     0
 40
1.0
176
     0
 90
        2
176
     1
  1
strokes_ogs.tif
176
     1
290
     0
176
     1
 40
1.0
176
     1
 40
1.0
176
     1
1001
ACAD
1000
AcDbSavedByObjectVersion
1070
     0
  0
VISUALSTYLE
  5
34
102
{ACAD_REACTORS
330
29
102
}
330
29
100
AcDbVisualStyle
  2
Dim
 70
    11
177
     3
291
     1
 70
    58
 90
        2
176
     1
 90
        2
176
     1
 90
        0
176
     1
 90
        0
176
     1
 40
0.6
176
     1
 40
30.0
176
     1
 62
     7
420
 16777215
176
     1
 90
        1
176
     1
 90
        4
176
     1
 62
     7
176
     1
 62
   257
176
     1
 90
        1
176
     1
 90
        1
176
     1
 40
1.0
176
     1
 90
        8
176
     1
 62
     7
176
     1
 40
1.0
176
     1
 90
        1
176
     1
 90
        6
176
     1
 90
        2
176
     1
 62
     7
176
     1
 90
        5
176
     1
 90
        0
176
     1
 90
        0
176
     1
290
     0
176
     1
 90
        1
176
     1
 40
-50.0
176
     1
 90
        0
176
     1
290
     0
176
     1
290
     1
176
     1
290
     1
176
     1
290
     0
176
     1
290
     0
176
     1
290
     0
176
     1
290
     0
176
     1
290
     0
176
     1
290
     0
176
     1
 90
       50
176
     1
 40
0.0
176
     1
 40
1.0
176
     1
 90
        0
176
     1
 62
    18
420
        0
176
     1
 90
       50
176
     1
 90
        3
176
     1
 62
     5
420
      255
176
     1
290
     0
176
     1
 90
       50
176
     1
 90
       50
176
     1
 90
       50
176
     1
290
     0
176
     1
 90
       50
176
     1
 62
   256
176
     0
 40
1.0
176
     0
 90
        2
176
     1
  1
strokes_ogs.tif
176
     1
290
     0
176
     1
 40
1.0
176
     1
 40
1.0
176
     1
1001
ACAD
1000
AcDbSavedByObjectVersion
1070
     0
  0
VISUALSTYLE
  5
41
102
{ACAD_REACTORS
330
29
102
}
330
29
100
AcDbVisualStyle
  2
EdgeColorOff
 70
    22
177
     3
291
     1
 70
    58
 90
        2
176
     0
 90
        2
176
     0
 90
        0
176
     0
 90
        0
176
     0
 40
0.6
176
     0
 40
30.0
176
     0
 62
     7
420
 16777215
176
     0
 90
        1
176
     0
 90
        4
176
     0
 62
     7
176
     0
 62
   257
176
     0
 90
        1
176
     0
 90
        1
176
     0
 40
1.0
176
     0
 90
        8
176
     2
 62
     7
176
     0
 40
1.0
176
     0
 90
        1
176
     0
 90
        6
176
     0
 90
        2
176
     0
 62
     7
176
     0
 90
        5
176
     0
 90
        0
176
     0
 90
        0
176
     0
290
     0
176
     0
 90
        1
176
     0
 40
0.0
176
     0
 90
        0
176
     0
290
     0
176
     0
290
     1
176
     0
290
     1
176
     0
290
     0
176
     0
290
     0
176
     0
290
     0
176
     0
290
     0
176
     0
290
     0
176
     0
290
     0
176
     0
 90
       50
176
     0
 40
0.0
176
     0
 40
1.0
176
     0
 90
        0
176
     0
 62
    18
420
        0
176
     0
 90
       50
176
     0
 90
        3
176
     0
 62
     5
420
      255
176
     0
290
     0
176
     0
 90
       50
176
     0
 90
       50
176
     0
 90
       50
176
     0
290
     0
176
     0
 90
       50
176
     0
 62
   256
176
     0
 40
1.0
176
     0
 90
        2
176
     0
  1
strokes_ogs.tif
176
     0
290
     0
176
     0
 40
1.0
176
     0
 40
1.0
176
     0
1001
ACAD
1000
AcDbSavedByObjectVersion
1070
     0
  0
VISUALSTYLE
  5
38
102
{ACAD_REACTORS
330
29
102
}
330
29
100
AcDbVisualStyle
  2
Facepattern
 70
    15
177
     3
291
     1
 70
    58
 90
        2
176
     1
 90
        2
176
     1
 90
        0
176
     1
 90
        0
176
     1
 40
0.6
176
     1
 40
30.0
176
     1
 62
     7
420
 16777215
176
     1
 90
        1
176
     1
 90
        4
176
     1
 62
     7
176
     1
 62
   257
176
     1
 90
        1
176
     1
 90
        1
176
     1
 40
1.0
176
     1
 90
        8
176
     1
 62
     7
176
     1
 40
1.0
176
     1
 90
        1
176
     1
 90
        6
176
     1
 90
        2
176
     1
 62
     7
176
     1
 90
        5
176
     1
 90
        0
176
     1
 90
        0
176
     1
290
     0
176
     1
 90
        1
176
     1
 40
0.0
176
     1
 90
        0
176
     1
290
     0
176
     1
290
     1
176
     1
290
     1
176
     1
290
     0
176
     1
290
     0
176
     1
290
     0
176
     1
290
     0
176
     1
290
     0
176
     1
290
     0
176
     1
 90
       50
176
     1
 40
0.0
176
     1
 40
1.0
176
     1
 90
        0
176
     1
 62
    18
420
        0
176
     1
 90
       50
176
     1
 90
        3
176
     1
 62
     5
420
      255
176
     1
290
     0
176
     1
 90
       50
176
     1
 90
       50
176
     1
 90
       50
176
     1
290
     0
176
     1
 90
       50
176
     1
 62
   256
176
     0
 40
1.0
176
     0
 90
        2
176
     1
  1
strokes_ogs.tif
176
     1
290
     0
176
     1
 40
1.0
176
     1
 40
1.0
176
     1
1001
ACAD
1000
AcDbSavedByObjectVersion
1070
     0
  0
VISUALSTYLE
  5
2A
102
{ACAD_REACTORS
330
29
102
}
330
29
100
AcDbVisualStyle
  2
Flat
 70
     0
177
     3
291
     1
 70
    58
 90
        2
176
     1
 90
        1
176
     1
 90
        1
176
     1
 90
        2
176
     1
 40
0.6
176
     1
 40
30.0
176
     1
 62
     7
420
 16777215
176
     1
 90
        0
176
     1
 90
        0
176
     1
 62
     7
176
     1
 62
   257
176
     1
 90
        1
176
     1
 90
        1
176
     1
 40
1.0
176
     1
 90
        8
176
     1
 62
     7
176
     1
 40
1.0
176
     1
 90
        1
176
     1
 90
        6
176
     1
 90
        2
176
     1
 62
     7
176
     1
 90
        5
176
     1
 90
        0
176
     1
 90
        0
176
     1
290
     0
176
     1
 90
       13
176
     1
 40
0.0
176
     1
 90
        0
176
     1
290
     0
176
     1
290
     1
176
     1
290
     1
176
     1
290
     0
176
     1
290
     0
176
     1
290
     0
176
     1
290
     0
176
     1
290
     0
176
     1
290
     0
176
     1
 90
       50
176
     1
 40
0.0
176
     1
 40
1.0
176
     1
 90
        0
176
     1
 62
    18
420
        0
176
     1
 90
       50
176
     1
 90
        3
176
     1
 62
     5
420
      255
176
     1
290
     0
176
     1
 90
       50
176
     1
 90
       50
176
     1
 90
       50
176
     1
290
     0
176
     1
 90
       50
176
     1
 62
   256
176
     0
 40
1.0
176
     0
 90
        2
176
     1
  1
strokes_ogs.tif
176
     1
290
     0
176
     1
 40
1.0
176
     1
 40
1.0
176
     1
1001
ACAD
1000
AcDbSavedByObjectVersion
1070
     0
  0
VISUALSTYLE
  5
2B
102
{ACAD_REACTORS
330
29
102
}
330
29
100
AcDbVisualStyle
  2
FlatWithEdges
 70
     1
177
     3
291
     1
 70
    58
 90
        2
176
     1
 90
        1
176
     1
 90
        1
176
     1
 90
        2
176
     1
 40
0.6
176
     1
 40
30.0
176
     1
 62
     7
420
 16777215
176
     1
 90
        1
176
     1
 90
        0
176
     1
 62
     7
176
     1
 62
   257
176
     1
 90
        1
176
     1
 90
        1
176
     1
 40
1.0
176
     1
 90
        0
176
     1
 62
   257
176
     1
 40
1.0
176
     1
 90
        1
176
     1
 90
        6
176
     1
 90
        2
176
     1
 62
     7
176
     1
 90
        5
176
     1
 90
        0
176
     1
 90
        0
176
     1
290
     0
176
     1
 90
       13
176
     1
 40
0.0
176
     1
 90
        0
176
     1
290
     0
176
     1
290
     1
176
     1
290
     1
176
     1
290
     0
176
     1
290
     0
176
     1
290
     0
176
     1
290
     0
176
     1
290
     0
176
     1
290
     0
176
     1
 90
       50
176
     1
 40
0.0
176
     1
 40
1.0
176
     1
 90
        0
176
     1
 62
    18
420
        0
176
     1
 90
       50
176
     1
 90
        3
176
     1
 62
     5
420
      255
176
     1
290
     0
176
     1
 90
       50
176
     1
 90
       50
176
     1
 90
       50
176
     1
290
     0
176
     1
 90
       50
176
     1
 62
   256
176
     0
 40
1.0
176
     0
 90
        2
176
     1
  1
strokes_ogs.tif
176
     1
290
     0
176
     1
 40
1.0
176
     1
 40
1.0
176
     1
1001
ACAD
1000
AcDbSavedByObjectVersion
1070
     0
  0
VISUALSTYLE
  5
2C
102
{ACAD_REACTORS
330
29
102
}
330
29
100
AcDbVisualStyle
  2
Gouraud
 70
     2
177
     3
291
     1
 70
    58
 90
        2
176
     1
 90
        2
176
     1
 90
        1
176
     1
 90
        2
176
     1
 40
0.6
176
     1
 40
30.0
176
     1
 62
     7
420
 16777215
176
     1
 90
        0
176
     1
 90
        0
176
     1
 62
     7
176
     1
 62
   257
176
     1
 90
        1
176
     1
 90
        1
176
     1
 40
1.0
176
     1
 90
        0
176
     1
 62
     7
176
     1
 40
1.0
176
     1
 90
        1
176
     1
 90
        6
176
     1
 90
        2
176
     1
 62
     7
176
     1
 90
        5
176
     1
 90
        0
176
     1
 90
        0
176
     1
290
     0
176
     1
 90
       13
176
     1
 40
0.0
176
     1
 90
        0
176
     1
290
     0
176
     1
290
     1
176
     1
290
     1
176
     1
290
     0
176
     1
290
     0
176
     1
290
     0
176
     1
290
     0
176
     1
290
     0
176
     1
290
     0
176
     1
 90
       50
176
     1
 40
0.0
176
     1
 40
1.0
176
     1
 90
        0
176
     1
 62
    18
420
        0
176
     1
 90
       50
176
     1
 90
        3
176
     1
 62
     5
420
      255
176
     1
290
     0
176
     1
 90
       50
176
     1
 90
       50
176
     1
 90
       50
176
     1
290
     0
176
     1
 90
       50
176
     1
 62
   256
176
     0
 40
1.0
176
     0
 90
        2
176
     1
  1
strokes_ogs.tif
176
     1
290
     0
176
     1
 40
1.0
176
     1
 40
1.0
176
     1
1001
ACAD
1000
AcDbSavedByObjectVersion
1070
     0
  0
VISUALSTYLE
  5
2D
102
{ACAD_REACTORS
330
29
102
}
330
29
100
AcDbVisualStyle
  2
GouraudWithEdges
 70
     3
177
     3
291
     1
 70
    58
 90
        2
176
     1
 90
        2
176
     1
 90
        1
176
     1
 90
        2
176
     1
 40
0.6
176
     1
 40
30.0
176
     1
 62
     7
420
 16777215
176
     1
 90
        1
176
     1
 90
        0
176
     1
 62
     7
176
     1
 62
   257
176
     1
 90
        1
176
     1
 90
        1
176
     1
 40
1.0
176
     1
 90
        0
176
     1
 62
   257
176
     1
 40
1.0
176
     1
 90
        1
176
     1
 90
        6
176
     1
 90
        2
176
     1
 62
     7
176
     1
 90
        5
176
     1
 90
        0
176
     1
 90
        0
176
     1
290
     0
176
     1
 90
       13
176
     1
 40
0.0
176
     1
 90
        0
176
     1
290
     0
176
     1
290
     1
176
     1
290
     1
176
     1
290
     0
176
     1
290
     0
176
     1
290
     0
176
     1
290
     0
176
     1
290
     0
176
     1
290
     0
176
     1
 90
       50
176
     1
 40
0.0
176
     1
 40
1.0
176
     1
 90
        0
176
     1
 62
    18
420
        0
176
     1
 90
       50
176
     1
 90
        3
176
     1
 62
     5
420
      255
176
     1
290
     0
176
     1
 90
       50
176
     1
 90
       50
176
     1
 90
       50
176
     1
290
     0
176
     1
 90
       50
176
     1
 62
   256
176
     0
 40
1.0
176
     0
 90
        2
176
     1
  1
strokes_ogs.tif
176
     1
290
     0
176
     1
 40
1.0
176
     1
 40
1.0
176
     1
1001
ACAD
1000
AcDbSavedByObjectVersion
1070
     0
  0
VISUALSTYLE
  5
31
102
{ACAD_REACTORS
330
29
102
}
330
29
100
AcDbVisualStyle
  2
Hidden
 70
     6
177
     3
291
     0
 70
    58
 90
        1
176
     1
 90
        2
176
     1
 90
        2
176
     1
 90
        0
176
     1
 40
0.6
176
     1
 40
30.0
176
     1
 62
     7
420
 16777215
176
     1
 90
        2
176
     1
 90
        2
176
     1
 62
     7
176
     1
 62
   257
176
     1
 90
        2
176
     1
 90
        1
176
     1
 40
40.0
176
     1
 90
        0
176
     1
 62
   257
176
     1
 40
1.0
176
     1
 90
        1
176
     1
 90
        6
176
     1
 90
        2
176
     1
 62
     7
176
     1
 90
        3
176
     1
 90
        0
176
     1
 90
        0
176
     1
290
     0
176
     1
 90
        1
176
     1
 40
0.0
176
     1
 90
        0
176
     1
290
     0
176
     1
290
     1
176
     1
290
     1
176
     1
290
     0
176
     1
290
     0
176
     1
290
     0
176
     1
290
     0
176
     1
290
     0
176
     1
290
     0
176
     1
 90
       50
176
     1
 40
0.0
176
     1
 40
1.0
176
     1
 90
        0
176
     1
 62
    18
420
        0
176
     1
 90
       50
176
     1
 90
        3
176
     1
 62
     5
420
      255
176
     1
290
     0
176
     1
 90
       50
176
     1
 90
       50
176
     1
 90
       50
176
     1
290
     0
176
     1
 90
       50
176
     1
 62
   256
176
     0
 40
1.0
176
     0
 90
        2
176
     1
  1
strokes_ogs.tif
176
     1
290
     0
176
     1
 40
1.0
176
     1
 40
1.0
176
     1
1001
ACAD
1000
AcDbSavedByObjectVersion
1070
     0
  0
VISUALSTYLE
  5
3F
102
{ACAD_REACTORS
330
29
102
}
330
29
100
AcDbVisualStyle
  2
JitterOff
 70
    20
177
     3
291
     1
 70
    58
 90
        2
176
     0
 90
        2
176
     0
 90
        0
176
     0
 90
        0
176
     0
 40
0.6
176
     0
 40
30.0
176
     0
 62
     7
420
 16777215
176
     0
 90
        1
176
     0
 90
        4
176
     0
 62
     7
176
     0
 62
   257
176
     0
 90
        1
176
     0
 90
        1
176
     0
 40
1.0
176
     0
 90
       10
176
     2
 62
     7
176
     0
 40
1.0
176
     0
 90
        1
176
     0
 90
        6
176
     0
 90
        2
176
     0
 62
     7
176
     0
 90
        5
176
     0
 90
        0
176
     0
 90
        0
176
     0
290
     0
176
     0
 90
        1
176
     0
 40
0.0
176
     0
 90
        0
176
     0
290
     0
176
     0
290
     1
176
     0
290
     1
176
     0
290
     0
176
     0
290
     0
176
     0
290
     0
176
     0
290
     0
176
     0
290
     0
176
     0
290
     0
176
     0
 90
       50
176
     0
 40
0.0
176
     0
 40
1.0
176
     0
 90
        0
176
     0
 62
    18
420
        0
176
     0
 90
       50
176
     0
 90
        3
176
     0
 62
     5
420
      255
176
     0
290
     0
176
     0
 90
       50
176
     0
 90
       50
176
     0
 90
       50
176
     0
290
     0
176
     0
 90
       50
176
     0
 62
   256
176
     0
 40
1.0
176
     0
 90
        2
176
     0
  1
strokes_ogs.tif
176
     0
290
     0
176
     0
 40
1.0
176
     0
 40
1.0
176
     0
1001
ACAD
1000
AcDbSavedByObjectVersion
1070
     0
  0
VISUALSTYLE
  5
37
102
{ACAD_REACTORS
330
29
102
}
330
29
100
AcDbVisualStyle
  2
Linepattern
 70
    14
177
     3
291
     1
 70
    58
 90
        2
176
     1
 90
        2
176
     1
 90
        0
176
     1
 90
        0
176
     1
 40
0.6
176
     1
 40
30.0
176
     1
 62
     7
420
 16777215
176
     1
 90
        1
176
     1
 90
        4
176
     1
 62
     7
176
     1
 62
   257
176
     1
 90
        7
176
     1
 90
        7
176
     1
 40
1.0
176
     1
 90
        8
176
     1
 62
     7
176
     1
 40
1.0
176
     1
 90
        1
176
     1
 90
        6
176
     1
 90
        2
176
     1
 62
     7
176
     1
 90
        5
176
     1
 90
        0
176
     1
 90
        0
176
     1
290
     0
176
     1
 90
        1
176
     1
 40
0.0
176
     1
 90
        0
176
     1
290
     0
176
     1
290
     1
176
     1
290
     1
176
     1
290
     0
176
     1
290
     0
176
     1
290
     0
176
     1
290
     0
176
     1
290
     0
176
     1
290
     0
176
     1
 90
       50
176
     1
 40
0.0
176
     1
 40
1.0
176
     1
 90
        0
176
     1
 62
    18
420
        0
176
     1
 90
       50
176
     1
 90
        3
176
     1
 62
     5
420
      255
176
     1
290
     0
176
     1
 90
       50
176
     1
 90
       50
176
     1
 90
       50
176
     1
290
     0
176
     1
 90
       50
176
     1
 62
   256
176
     0
 40
1.0
176
     0
 90
        2
176
     1
  1
strokes_ogs.tif
176
     1
290
     0
176
     1
 40
1.0
176
     1
 40
1.0
176
     1
1001
ACAD
1000
AcDbSavedByObjectVersion
1070
     0
  0
VISUALSTYLE
  5
40
102
{ACAD_REACTORS
330
29
102
}
330
29
100
AcDbVisualStyle
  2
OverhangOff
 70
    21
177
     3
291
     1
 70
    58
 90
        2
176
     0
 90
        2
176
     0
 90
        0
176
     0
 90
        0
176
     0
 40
0.6
176
     0
 40
30.0
176
     0
 62
     7
420
 16777215
176
     0
 90
        1
176
     0
 90
        4
176
     0
 62
     7
176
     0
 62
   257
176
     0
 90
        1
176
     0
 90
        1
176
     0
 40
1.0
176
     0
 90
        9
176
     2
 62
     7
176
     0
 40
1.0
176
     0
 90
        1
176
     0
 90
        6
176
     0
 90
        2
176
     0
 62
     7
176
     0
 90
        5
176
     0
 90
        0
176
     0
 90
        0
176
     0
290
     0
176
     0
 90
        1
176
     0
 40
0.0
176
     0
 90
        0
176
     0
290
     0
176
     0
290
     1
176
     0
290
     1
176
     0
290
     0
176
     0
290
     0
176
     0
290
     0
176
     0
290
     0
176
     0
290
     0
176
     0
290
     0
176
     0
 90
       50
176
     0
 40
0.0
176
     0
 40
1.0
176
     0
 90
        0
176
     0
 62
    18
420
        0
176
     0
 90
       50
176
     0
 90
        3
176
     0
 62
     5
420
      255
176
     0
290
     0
176
     0
 90
       50
176
     0
 90
       50
176
     0
 90
       50
176
     0
290
     0
176
     0
 90
       50
176
     0
 62
   256
176
     0
 40
1.0
176
     0
 90
        2
176
     0
  1
strokes_ogs.tif
176
     0
290
     0
176
     0
 40
1.0
176
     0
 40
1.0
176
     0
1001
ACAD
1000
AcDbSavedByObjectVersion
1070
     0
  0
VISUALSTYLE
  5
33
102
{ACAD_REACTORS
330
29
102
}
330
29
100
AcDbVisualStyle
  2
Realistic
 70
     8
177
     3
291
     0
 70
    58
 90
        2
176
     1
 90
        3
176
     1
 90
        0
176
     1
 90
        2
176
     1
 40
0.6
176
     1
 40
30.0
176
     1
 62
     7
420
 16777215
176
     1
 90
        0
176
     1
 90
        0
176
     1
 62
     7
176
     1
 62
   257
176
     1
 90
        1
176
     1
 90
        1
176
     1
 40
1.0
176
     1
 90
        8
176
     1
 62
   257
176
     1
 40
1.0
176
     1
 90
        1
176
     1
 90
        6
176
     1
 90
        2
176
     1
 62
     7
176
     1
 90
        3
176
     1
 90
        0
176
     1
 90
        0
176
     1
290
     0
176
     1
 90
       13
176
     1
 40
0.0
176
     1
 90
        0
176
     1
290
     0
176
     1
290
     1
176
     1
290
     1
176
     1
290
     0
176
     1
290
     0
176
     1
290
     0
176
     1
290
     0
176
     1
290
     0
176
     1
290
     0
176
     1
 90
       50
176
     1
 40
0.0
176
     1
 40
1.0
176
     1
 90
        0
176
     1
 62
    18
420
        0
176
     1
 90
       50
176
     1
 90
        3
176
     1
 62
     5
420
      255
176
     1
290
     0
176
     1
 90
       50
176
     1
 90
       50
176
     1
 90
       50
176
     1
290
     0
176
     1
 90
       50
176
     1
 62
   256
176
     0
 40
1.0
176
     0
 90
        2
176
     1
  1
strokes_ogs.tif
176
     1
290
     0
176
     1
 40
1.0
176
     1
 40
1.0
176
     1
1001
ACAD
1000
AcDbSavedByObjectVersion
1070
     0
  0
VISUALSTYLE
  5
3E
102
{ACAD_REACTORS
330
29
102
}
330
29
100
AcDbVisualStyle
  2
Shaded
 70
    27
177
     3
291
     0
 70
    58
 90
        2
176
     1
 90
        2
176
     1
 90
        1
176
     1
 90
        2
176
     1
 40
0.6
176
     1
 40
30.0
176
     1
 62
     7
420
 16777215
176
     1
 90
        0
176
     1
 90
        4
176
     1
 62
     7
176
     1
 62
   257
176
     1
 90
        1
176
     1
 90
        1
176
     1
 40
1.0
176
     1
 90
        8
176
     1
 62
   257
176
     1
 40
1.0
176
     1
 90
        1
176
     1
 90
        6
176
     1
 90
        2
176
     1
 62
     8
420
  7895160
176
     1
 90
        3
176
     1
 90
        0
176
     1
 90
        0
176
     1
290
     0
176
     1
 90
        5
176
     1
 40
0.0
176
     1
 90
        0
176
     1
290
     0
176
     1
290
     1
176
     1
290
     1
176
     1
290
     0
176
     1
290
     0
176
     1
290
     0
176
     1
290
     0
176
     1
290
     0
176
     1
290
     0
176
     1
 90
       50
176
     1
 40
0.0
176
     1
 40
1.0
176
     1
 90
        0
176
     1
 62
    18
420
        0
176
     1
 90
       50
176
     1
 90
        3
176
     1
 62
     5
420
      255
176
     1
290
     0
176
     1
 90
       50
176
     1
 90
       50
176
     1
 90
       50
176
     1
290
     0
176
     1
 90
       50
176
     1
 62
   256
176
     0
 40
1.0
176
     0
 90
        2
176
     1
  1
strokes_ogs.tif
176
     1
290
     0
176
     1
 40
1.0
176
     1
 40
1.0
176
     1
1001
ACAD
1000
AcDbSavedByObjectVersion
1070
     0
  0
VISUALSTYLE
  5
3D
102
{ACAD_REACTORS
330
29
102
}
330
29
100
AcDbVisualStyle
  2
Shaded with edges
 70
    26
177
     3
291
     0
 70
    58
 90
        2
176
     1
 90
        2
176
     1
 90
        1
176
     1
 90
        2
176
     1
 40
0.6
176
     1
 40
30.0
176
     1
 62
     7
420
 16777215
176
     1
 90
        1
176
     1
 90
        2
176
     1
 62
     7
176
     1
 62
   257
176
     1
 90
        2
176
     1
 90
        1
176
     1
 40
1.0
176
     1
 90
        8
176
     1
 62
   257
176
     1
 40
1.0
176
     1
 90
        1
176
     1
 90
        6
176
     1
 90
        2
176
     1
 62
     7
176
     1
 90
        3
176
     1
 90
        0
176
     1
 90
        0
176
     1
290
     0
176
     1
 90
        5
176
     1
 40
0.0
176
     1
 90
        0
176
     1
290
     0
176
     1
290
     1
176
     1
290
     1
176
     1
290
     0
176
     1
290
     0
176
     1
290
     0
176
     1
290
     0
176
     1
290
     0
176
     1
290
     0
176
     1
 90
       50
176
     1
 40
0.0
176
     1
 40
1.0
176
     1
 90
        0
176
     1
 62
    18
420
        0
176
     1
 90
       50
176
     1
 90
        3
176
     1
 62
     5
420
      255
176
     1
290
     0
176
     1
 90
       50
176
     1
 90
       50
176
     1
 90
       50
176
     1
290
     0
176
     1
 90
       50
176
     1
 62
   256
176
     0
 40
1.0
176
     0
 90
        2
176
     1
  1
strokes_ogs.tif
176
     1
290
     0
176
     1
 40
1.0
176
     1
 40
1.0
176
     1
1001
ACAD
1000
AcDbSavedByObjectVersion
1070
     0
  0
VISUALSTYLE
  5
3A
102
{ACAD_REACTORS
330
29
102
}
330
29
100
AcDbVisualStyle
  2
Shades of Gray
 70
    23
177
     3
291
     0
 70
    58
 90
        2
176
     1
 90
        2
176
     1
 90
        3
176
     1
 90
        0
176
     1
 40
0.6
176
     1
 40
30.0
176
     1
 62
     7
420
 16777215
176
     1
 90
        2
176
     1
 90
        2
176
     1
 62
     7
176
     1
 62
     7
176
     1
 90
        1
176
     1
 90
        1
176
     1
 40
40.0
176
     1
 90
        8
176
     1
 62
     7
176
     1
 40
1.0
176
     1
 90
        1
176
     1
 90
        6
176
     1
 90
        2
176
     1
 62
     7
176
     1
 90
        3
176
     1
 90
        0
176
     1
 90
        0
176
     1
290
     0
176
     1
 90
        1
176
     1
 40
0.0
176
     1
 90
        0
176
     1
290
     0
176
     1
290
     1
176
     1
290
     1
176
     1
290
     0
176
     1
290
     0
176
     1
290
     0
176
     1
290
     0
176
     1
290
     0
176
     1
290
     0
176
     1
 90
       50
176
     1
 40
0.0
176
     1
 40
1.0
176
     1
 90
        0
176
     1
 62
    18
420
        0
176
     1
 90
       50
176
     1
 90
        3
176
     1
 62
     5
420
      255
176
     1
290
     0
176
     1
 90
       50
176
     1
 90
       50
176
     1
 90
       50
176
     1
290
     0
176
     1
 90
       50
176
     1
 62
   256
176
     0
 40
1.0
176
     0
 90
        2
176
     1
  1
strokes_ogs.tif
176
     1
290
     0
176
     1
 40
1.0
176
     1
 40
1.0
176
     1
1001
ACAD
1000
AcDbSavedByObjectVersion
1070
     0
  0
VISUALSTYLE
  5
3B
102
{ACAD_REACTORS
330
29
102
}
330
29
100
AcDbVisualStyle
  2
Sketchy
 70
    24
177
     3
291
     0
 70
    58
 90
        1
176
     1
 90
        2
176
     1
 90
        2
176
     1
 90
        0
176
     1
 40
0.6
176
     1
 40
30.0
176
     1
 62
     7
420
 16777215
176
     1
 90
        2
176
     1
 90
        2
176
     1
 62
     7
176
     1
 62
     7
176
     1
 90
        1
176
     1
 90
        1
176
     1
 40
40.0
176
     1
 90
       11
176
     1
 62
     7
176
     1
 40
1.0
176
     1
 90
        1
176
     1
 90
        6
176
     1
 90
        2
176
     1
 62
     7
176
     1
 90
        6
176
     1
 90
        0
176
     1
 90
        0
176
     1
290
     0
176
     1
 90
        1
176
     1
 40
0.0
176
     1
 90
        0
176
     1
290
     0
176
     1
290
     1
176
     1
290
     1
176
     1
290
     0
176
     1
290
     0
176
     1
290
     0
176
     1
290
     0
176
     1
290
     0
176
     1
290
     0
176
     1
 90
       50
176
     1
 40
0.0
176
     1
 40
1.0
176
     1
 90
        0
176
     1
 62
    18
420
        0
176
     1
 90
       50
176
     1
 90
        3
176
     1
 62
     5
420
      255
176
     1
290
     0
176
     1
 90
       50
176
     1
 90
       50
176
     1
 90
       50
176
     1
290
     0
176
     1
 90
       50
176
     1
 62
   256
176
     0
 40
1.0
176
     0
 90
        2
176
     1
  1
strokes_ogs.tif
176
     1
290
     0
176
     1
 40
1.0
176
     1
 40
1.0
176
     1
1001
ACAD
1000
AcDbSavedByObjectVersion
1070
     0
  0
VISUALSTYLE
  5
36
102
{ACAD_REACTORS
330
29
102
}
330
29
100
AcDbVisualStyle
  2
Thicken
 70
    13
177
     3
291
     1
 70
    58
 90
        2
176
     1
 90
        2
176
     1
 90
        0
176
     1
 90
        0
176
     1
 40
0.6
176
     1
 40
30.0
176
     1
 62
     7
420
 16777215
176
     1
 90
        1
176
     1
 90
        4
176
     1
 62
     7
176
     1
 62
   257
176
     1
 90
        1
176
     1
 90
        1
176
     1
 40
1.0
176
     1
 90
       12
176
     1
 62
     7
176
     1
 40
1.0
176
     1
 90
        1
176
     1
 90
        6
176
     1
 90
        2
176
     1
 62
     7
176
     1
 90
        5
176
     1
 90
        0
176
     1
 90
        0
176
     1
290
     0
176
     1
 90
        1
176
     1
 40
0.0
176
     1
 90
        0
176
     1
290
     0
176
     1
290
     1
176
     1
290
     1
176
     1
290
     0
176
     1
290
     0
176
     1
290
     0
176
     1
290
     0
176
     1
290
     0
176
     1
290
     0
176
     1
 90
       50
176
     1
 40
0.0
176
     1
 40
1.0
176
     1
 90
        0
176
     1
 62
    18
420
        0
176
     1
 90
       50
176
     1
 90
        3
176
     1
 62
     5
420
      255
176
     1
290
     0
176
     1
 90
       50
176
     1
 90
       50
176
     1
 90
       50
176
     1
290
     0
176
     1
 90
       50
176
     1
 62
   256
176
     0
 40
1.0
176
     0
 90
        2
176
     1
  1
strokes_ogs.tif
176
     1
290
     0
176
     1
 40
1.0
176
     1
 40
1.0
176
     1
1001
ACAD
1000
AcDbSavedByObjectVersion
1070
     0
  0
VISUALSTYLE
  5
30
102
{ACAD_REACTORS
330
29
102
}
330
29
100
AcDbVisualStyle
  2
Wireframe
 70
     5
177
     3
291
     0
 70
    58
 90
        0
176
     1
 90
        2
176
     1
 90
        0
176
     1
 90
        0
176
     1
 40
0.6
176
     1
 40
30.0
176
     1
 62
     7
420
 16777215
176
     1
 90
        1
176
     1
 90
        4
176
     1
 62
     7
176
     1
 62
   257
176
     1
 90
        1
176
     1
 90
        1
176
     1
 40
1.0
176
     1
 90
        0
176
     1
 62
   257
176
     1
 40
1.0
176
     1
 90
        1
176
     1
 90
        6
176
     1
 90
        2
176
     1
 62
     7
176
     1
 90
        3
176
     1
 90
        0
176
     1
 90
        0
176
     1
290
     0
176
     1
 90
        1
176
     1
 40
0.0
176
     1
 90
        0
176
     1
290
     0
176
     1
290
     1
176
     1
290
     1
176
     1
290
     0
176
     1
290
     0
176
     1
290
     0
176
     1
290
     0
176
     1
290
     0
176
     1
290
     0
176
     1
 90
       50
176
     1
 40
0.0
176
     1
 40
1.0
176
     1
 90
        0
176
     1
 62
    18
420
        0
176
     1
 90
       50
176
     1
 90
        3
176
     1
 62
     5
420
      255
176
     1
290
     0
176
     1
 90
       50
176
     1
 90
       50
176
     1
 90
       50
176
     1
290
     0
176
     1
 90
       50
176
     1
 62
   256
176
     0
 40
1.0
176
     0
 90
        2
176
     1
  1
strokes_ogs.tif
176
     1
290
     0
176
     1
 40
1.0
176
     1
 40
1.0
176
     1
1001
ACAD
1000
AcDbSavedByObjectVersion
1070
     0
  0
VISUALSTYLE
  5
3C
102
{ACAD_REACTORS
330
29
102
}
330
29
100
AcDbVisualStyle
  2
X-Ray
 70
    25
177
     3
291
     0
 70
    58
 90
        2
176
     1
 90
        2
176
     1
 90
        1
176
     1
 90
        1
176
     1
 40
0.5
176
     1
 40
30.0
176
     1
 62
     7
420
 16777215
176
     1
 90
        1
176
     1
 90
        0
176
     1
 62
     7
176
     1
 62
   257
176
     1
 90
        1
176
     1
 90
        1
176
     1
 40
1.0
176
     1
 90
        8
176
     1
 62
     7
176
     1
 40
1.0
176
     1
 90
        1
176
     1
 90
        6
176
     1
 90
        2
176
     1
 62
     7
176
     1
 90
        3
176
     1
 90
        0
176
     1
 90
        0
176
     1
290
     0
176
     1
 90
       13
176
     1
 40
0.0
176
     1
 90
        0
176
     1
290
     0
176
     1
290
     1
176
     1
290
     1
176
     1
290
     0
176
     1
290
     0
176
     1
290
     0
176
     1
290
     0
176
     1
290
     0
176
     1
290
     0
176
     1
 90
       50
176
     1
 40
0.0
176
     1
 40
1.0
176
     1
 90
        0
176
     1
 62
    18
420
        0
176
     1
 90
       50
176
     1
 90
        3
176
     1
 62
     5
420
      255
176
     1
290
     0
176
     1
 90
       50
176
     1
 90
       50
176
     1
 90
       50
176
     1
290
     0
176
     1
 90
       50
176
     1
 62
   256
176
     0
 40
1.0
176
     0
 90
        2
176
     1
  1
strokes_ogs.tif
176
     1
290
     0
176
     1
 40
1.0
176
     1
 40
1.0
176
     1
1001
ACAD
1000
AcDbSavedByObjectVersion
1070
     0
  0
DICTIONARYVAR
  5
1F4
102
{ACAD_REACTORS
330
1EF
102
}
330
1EF
100
DictionaryVariables
280
     0
  1
1:1
  0
DICTIONARYVAR
  5
1F1
102
{ACAD_REACTORS
330
1EF
102
}
330
1EF
100
DictionaryVariables
280
     0
  1
STANDARD
  0
DICTIONARYVAR
  5
1F0
102
{ACAD_REACTORS
330
1EF
102
}
330
1EF
100
DictionaryVariables
280
     0
  1
STANDARD
  0
DICTIONARYVAR
  5
1F2
102
{ACAD_REACTORS
330
1EF
102
}
330
1EF
100
DictionaryVariables
280
     0
  1
Imperial24
  0
DICTIONARYVAR
  5
1F3
102
{ACAD_REACTORS
330
1EF
102
}
330
1EF
100
DictionaryVariables
280
     0
  1
Imperial24
  0
DICTIONARY
  5
1FA
330
6B
100
AcDbDictionary
280
     1
281
     1
  3
ACAD_XREC_ROUNDTRIP
360
1FB
  0
DICTIONARY
  5
1A
330
19
100
AcDbDictionary
280
     1
281
     1
  3
BUMPTILE
360
1C
  3
DIFFUSETILE
360
1B
  3
OPACITYTILE
360
1F
  3
REFLECTIONTILE
360
1E
  3
REFRACTIONTILE
360
20
  3
SPECULARTILE
360
1D
  0
DICTIONARY
  5
12
330
11
100
AcDbDictionary
280
     1
281
     1
  3
BUMPTILE
360
14
  3
DIFFUSETILE
360
13
  3
OPACITYTILE
360
17
  3
REFLECTIONTILE
360
16
  3
REFRACTIONTILE
360
18
  3
SPECULARTILE
360
15
  0
DICTIONARY
  5
22
330
21
100
AcDbDictionary
280
     1
281
     1
  3
BUMPTILE
360
24
  3
DIFFUSETILE
360
23
  3
OPACITYTILE
360
27
  3
REFLECTIONTILE
360
26
  3
REFRACTIONTILE
360
28
  3
SPECULARTILE
360
25
  0
DICTIONARY
  5
1F8
330
69
100
AcDbDictionary
280
     1
281
     1
  3
ACAD_XREC_ROUNDTRIP
360
1F9
  0
DICTIONARY
  5
1F5
330
65
100
AcDbDictionary
280
     1
281
     1
  3
ACAD_ROUNDTRIP_2008_TABLESTYLE_CELLSTYLEMAP
360
1F6
  0
XRECORD
  5
1FB
102
{ACAD_REACTORS
330
1FA
102
}
330
1FA
100
AcDbXrecord
280
     1
102
DISPLAYNAME
  1
Imperial24
102
FLAGS
 90
        0
  0
XRECORD
  5
1C
102
{ACAD_REACTORS
330
1A
102
}
330
1A
100
AcDbXrecord
280
     1
270
     1
271
     1
  0
XRECORD
  5
1B
102
{ACAD_REACTORS
330
1A
102
}
330
1A
100
AcDbXrecord
280
     1
270
     1
271
     1
  0
XRECORD
  5
1F
102
{ACAD_REACTORS
330
1A
102
}
330
1A
100
AcDbXrecord
280
     1
270
     1
271
     1
  0
XRECORD
  5
1E
102
{ACAD_REACTORS
330
1A
102
}
330
1A
100
AcDbXrecord
280
     1
270
     1
271
     1
  0
XRECORD
  5
20
102
{ACAD_REACTORS
330
1A
102
}
330
1A
100
AcDbXrecord
280
     1
270
     1
271
     1
  0
XRECORD
  5
1D
102
{ACAD_REACTORS
330
1A
102
}
330
1A
100
AcDbXrecord
280
     1
270
     1
271
     1
  0
XRECORD
  5
14
102
{ACAD_REACTORS
330
12
102
}
330
12
100
AcDbXrecord
280
     1
270
     1
271
     1
  0
XRECORD
  5
13
102
{ACAD_REACTORS
330
12
102
}
330
12
100
AcDbXrecord
280
     1
270
     1
271
     1
  0
XRECORD
  5
17
102
{ACAD_REACTORS
330
12
102
}
330
12
100
AcDbXrecord
280
     1
270
     1
271
     1
  0
XRECORD
  5
16
102
{ACAD_REACTORS
330
12
102
}
330
12
100
AcDbXrecord
280
     1
270
     1
271
     1
  0
XRECORD
  5
18
102
{ACAD_REACTORS
330
12
102
}
330
12
100
AcDbXrecord
280
     1
270
     1
271
     1
  0
XRECORD
  5
15
102
{ACAD_REACTORS
330
12
102
}
330
12
100
AcDbXrecord
280
     1
270
     1
271
     1
  0
XRECORD
  5
24
102
{ACAD_REACTORS
330
22
102
}
330
22
100
AcDbXrecord
280
     1
270
     1
271
     1
  0
XRECORD
  5
23
102
{ACAD_REACTORS
330
22
102
}
330
22
100
AcDbXrecord
280
     1
270
     1
271
     1
  0
XRECORD
  5
27
102
{ACAD_REACTORS
330
22
102
}
330
22
100
AcDbXrecord
280
     1
270
     1
271
     1
  0
XRECORD
  5
26
102
{ACAD_REACTORS
330
22
102
}
330
22
100
AcDbXrecord
280
     1
270
     1
271
     1
  0
XRECORD
  5
28
102
{ACAD_REACTORS
330
22
102
}
330
22
100
AcDbXrecord
280
     1
270
     1
271
     1
  0
XRECORD
  5
25
102
{ACAD_REACTORS
330
22
102
}
330
22
100
AcDbXrecord
280
     1
270
     1
271
     1
  0
XRECORD
  5
1F9
102
{ACAD_REACTORS
330
1F8
102
}
330
1F8
100
AcDbXrecord
280
     1
102
DISPLAYNAME
  1
Imperial24
102
FLAGS
 90
        0
  0
CELLSTYLEMAP
  5
1F6
102
{ACAD_REACTORS
330
1F5
102
}
330
1F5
100
AcDbCellStyleMap
 90
        3
300
CELLSTYLE
  1
TABLEFORMAT_BEGIN
 90
        5
170
     1
 91
        0
 92
    32768
 62
   257
 93
        1
300
CONTENTFORMAT
  1
CONTENTFORMAT_BEGIN
 90
        0
 91
        0
 92
      512
 93
        0
300

 40
0.0
140
1.0
 94
        5
 62
     0
340
55
144
0.25
309
CONTENTFORMAT_END
171
     0
 94
        0
309
TABLEFORMAT_END
  1
CELLSTYLE_BEGIN
 90
        1
 91
        1
300
_TITLE
309
CELLSTYLE_END
300
CELLSTYLE
  1
TABLEFORMAT_BEGIN
 90
        5
170
     1
 91
        0
 92
        0
 62
   257
 93
        1
300
CONTENTFORMAT
  1
CONTENTFORMAT_BEGIN
 90
        0
 91
        0
 92
      512
 93
        0
300

 40
0.0
140
1.0
 94
        5
 62
     0
340
55
144
0.18
309
CONTENTFORMAT_END
171
     0
 94
        0
309
TABLEFORMAT_END
  1
CELLSTYLE_BEGIN
 90
        2
 91
        1
300
_HEADER
309
CELLSTYLE_END
300
CELLSTYLE
  1
TABLEFORMAT_BEGIN
 90
        5
170
     1
 91
        0
 92
        0
 62
   257
 93
        1
300
CONTENTFORMAT
  1
CONTENTFORMAT_BEGIN
 90
        0
 91
        0
 92
      512
 93
        0
300

 40
0.0
140
1.0
 94
        2
 62
     0
340
55
144
0.18
309
CONTENTFORMAT_END
171
     0
 94
        0
309
TABLEFORMAT_END
  1
CELLSTYLE_BEGIN
 90
        3
 91
        2
300
_DATA
309
CELLSTYLE_END
  0
ENDSEC
  0
EOF
